PrimaNota.ru - самый крупный в мире бесплатный архив песенных текстов, аккордов, табулатур и нот


Tomorrows Bad Seeds - Uplift - таба, видео

Регистрация Запомнить меня
Войти через:  Facebook Google Twitter Vk Yandex Mail.ru

Tomorrows Bad Seeds - Uplift - таба, видео

Печатать
Просмотров: 75
Uplift
Sacred For Sale
Tomorrows Bad Seeds

E|---/8---7------------10-8-7-----------------------|
B|------------8------8--------8-6-------------------|
G|-----------------------------------7b-~-~-~-------|
D|--------------------------------------------------|
A|--------------------------------------------------|
E|--------------------------------------------------|

E|---/8---7------------10-8-7------------------------------|
B|------------8------8--------8-6--------------------------|
G|-----------------------------------7b-~-~-5-7b~-5-4------|
D|----------------------------------------------------7-7--|
A|---------------------------------------------------------|
E|---------------------------------------------------------|


E|----5----5----3----3----1----1----1----3----|
B|----5----5----3----3----1----1----1----3----|
G|----5----5----4----4----2----2----2----4----|
D|----7----7----5----5----3----3----3----5----|
A|--------------------------------------------|
E|--------------------------------------------|


E|-----------------------------------------------------|
B|-----------------------------------------------------|
G|-/9-7--5--/7-------5-7-7-7-9-7-5----5-5------5-------|
D|-----------------------------------------5h7---------|
A|-----------------------------------------------------|
E|-----------------------------------------------------|

E|-----------------------------------------------------|
B|-----------------------------------------------------|
G|-/9-7--5--/7-----7-5-7-7-7-9-7-5------5-7---5h7p5----|
D|----------------------------------5-7-------------7--|
A|-----------------------------------------------------|
E|-----------------------------------------------------|

E|------------------------------------------------------------------|
B|-8-8-8---------8-8-8----------------------------------------------|
G|--------7-7-7---------7------7----7-9-7----------7-7h9p7----------|
D|--------------------------10---10--------10-7-10-----------10-7---|
A|------------------------------------------------------------------|
E|------------------------------------------------------------------|

E|------------------------------------------------------------------------|
B|-8-8-8---------8-8-8----------------------------------------------------|
G|--------7-7-7---------7------7----7-9-7------------------7-7h9p7--------|
D|--------------------------10---10--------10----7h10p7-10---------10-7---|
A|------------------------------------------------------------------------|
E|------------------------------------------------------------------------|



If you feel like messing around with the solo, use the Natural Minor Scale in the key of A.
Добавлено: 30.07.2013
Другие материалы по этой песне:
  • Аккорды и текст

Страница создана 30.07.2013
http://primanota.ru/tomorrows-bad-seeds/uplift-chords.htm
Привет, Гость.
Предлагаем пройти революционный курс по гитаре.
Подарок от PrimaNota.Ru, забирай!