PrimaNota.ru - самый крупный в мире бесплатный архив песенных текстов, аккордов, табулатур и нот


Tomohito Nishiura - Norune Village - таба, видео

Регистрация Запомнить меня
Войти через:  Facebook Google Twitter Vk Yandex Mail.ru

Tomohito Nishiura - Norune Village - таба, видео

Печатать
Просмотров: 79
Credit goes to pizza-bert.tumblr.com, I have their permission to post this here

Norune Village

Standard Tuning

e|-----2---------0-----2---------0-|-----2---------0-----2---------0-|
B|-------3-----3---------3-----3---|-------3-----3---------3-----3---|
G|---2-------2-------2-------2-----|---2-------2-------2-------2-----|
D|-0-------4-------0-------2-------|-0-------4-------0-------2-------|
A|---------------------------------|---------------------------------|
E|---------------------------------|---------------------------------|

e|-----2---------0-----2---------0-|-----2---------0-----2---------0-|
B|-------3-----3---------3-----3---|-------3-----3---------3-----3---|
G|---2-------2-------2-------2-----|---2-------2-------2-------2-----|
D|-0-------4-------0-------2-------|-0-------4-------0-------2-------|
A|---------------------------------|---------------------------------|
E|---------------------------------|---------------------------------|

e|-----2---------0-----2---------0-|-----2---------0-----2---------0-|
B|-------3-----3---------3-----3---|-------3-----3---------3-----3---|
G|---0-------0-------0-------0-----|---0-------0-------0-------0-----|
D|---------2---------------0-------|---------2---------------0-------|
A|-3---------------3---------------|-3---------------3---------------|
E|---------------------------------|---------------------------------|

e|-----2---------0-----2---------0-|-----2---------0-----2---------0-|
B|-------3-----3---------3-----3---|-------3-----3---------3-----3---|
G|---2-------2-------2-------2-----|---2-------2-------2-------2-----|
D|-0-------4-------0-------2-------|-0-------4-------0-------2-------|
A|---------------------------------|---------------------------------|
E|---------------------------------|---------------------------------|

e|-----2---------0-----2---------0-|-----0---------------2-----------|
B|-------3-----3---------3-----3---|---------------3-------3-----3---|
G|---4-------4-------4-------4-----|-------2-----2-----------------4-|
D|---------2---------------0-------|---4-------4-------4-------4-----|
A|---------------------------------|-----------------2-------2-------|
E|-3---------------3---------------|-2-------2-----------------------|

e|-----3---------------5---------0-|-----2---------------2-----------|
B|-------3-----2h3-------3-----3---|-------3-----2h3-------3-----2h3-|
G|---0-------0-------0-------4-----|---4-------4---------------4-----|
D|---------0---------------0-------|-------------------4-----2-------|
A|---------------------------------|---------2-----------------------|
E|-3---------------3---------------|-0---------------0---------------|

e|-----2---------------2-----------|-----2---------0-----2-----------|
B|-------3-----2h3-------3-----2---|-------2---2h3---------3-----2---|
G|---4-------4-------4-------4---2-|---2---------------2-------2---2-|
D|---------4---------------4-------|---------2-----------------------|
A|-2---------------2---------------|-0---------------0-------4-------|
E|---------------------------------|---------------------------------|

e|-----2---------0-----2---------0-|-----3---------0-----3---------0-|
B|-------3-----3---------3-----3---|-------3-----3---------3-----3---|
G|---4-------4-------4-----0h4-----|---4-------4-------4-----0h4-----|
D|---------0-----------------------|---------------------------------|
A|---------------------------------|---------2-----------------------|
E|-3---------------3---------------|-0---------------0---------------|

e|-----2---------0-----2---------0-|-----2---------0-----2---------0-|
B|-------3-----3---------3-----3---|-------3-----3---------3-----3---|
G|---2-------2-------2-------2-----|---2-------2-------2-------2-----|
D|-0-------2-------0-------2-------|-0-------2-------0-------2-------|
A|---------------------------------|---------------------------------|
E|---------------------------------|---------------------------------|

Ending 1

e|-----2---------0-----5---------0-|-----2---------0-0---------------|
B|-------3-----3-----0---3-----3---|-------2-----3---2---------------|
G|---0-------4-------------0h4-----|---2-------2-----2---------------|
D|---------0-----------------------|---------2-------2---------------|
A|---------------------------------|-0---------------0---------------|
E|-3---------------3---------------|---------------------------------|

Repeat everything up to Ending 1

Ending 2

e|-----5---------0-----3p2-----0---|-----5---------0-2---------------|
B|-------3-----3-----------------3-|-------3-----3---3---------------|
G|---2---------------2-------2-----|---2-------2-----2---------------|
D|-0-------2h4-----0-------2-------|-0-------2-------0---------------|
A|---------------------------------|---------------------------------|
E|---------------------------------|---------------------------------|
Добавлено: 30.06.2015
Другие материалы по этой песне:
  • Аккорды и текст

Страница создана 30.06.2015
http://primanota.ru/tomohito-nishiura/norune-village-chords.htm
Привет, Гость.
Предлагаем пройти революционный курс по гитаре.
Подарок от PrimaNota.Ru, забирай!