PrimaNota.ru - самый крупный в мире бесплатный архив песенных текстов, аккордов, табулатур и нот


Tommy Torres - El Barco Que Se Hunde - аккорды и текст, видео

Регистрация Запомнить меня
Войти через:  Facebook Google Twitter Vk Yandex Mail.ru

Tommy Torres - El Barco Que Se Hunde - аккорды и текст, видео

Печатать
Просмотров: 90
El Barco Que Se Hunde
Tommy Torres
Intro: D - G - D - G

    D                  G
e----------------------------|
B---3--3/5--5/8--5--3/5-3--3-|
G---2--2/4--4/7--4--2/4-2--0-| (x2)
D---0----------------------0-|
A--------------------------0-|
E--------------------------3-|

    D                        G
Bailamos en un barco que se hunde.
    D                   G
El paso de un ultimo bolero.
        F#m       C Bm     G            Em         Bm
En este mismo lugar donde hace algunos meses hubo risas.
      G
Tantas caricias.


      D                               G
Pero hoy bailamos en un barco que ya no da más.
    D                        G
Sabemos que no veremos la mañana.
     F#m         C  Bm  G            Em
Por mas que intentamos mantenerlo a flote
            Bm
De cubo, en cubo.
    C          G
No se pudo.


              D                     G
El agua nos llega a la cintura ya.
               D                      G
Quedarse un minuto más ya sería locura.
               Bm        C         Em            F#m
Los pies congelados, el pecho apretado contra el tuyo,
    G
es tan duro.

                          D                   G
e-----------------------|---------------------------|
B-----------------------|-3--3/5--5/8--5--3/5-3---3-|
G-----------------------|-2--2/4--4/7--4--2/4-2---0-| (x2)
D------0--2h4-2--0------|-0-----------------------0-|
A--0h2-------------2--0-|-------------------------0-|
E-----------------------|-------------------------3-|


              D                      G
Después de haber sobrevivido mil tormentas
         D                           G
e inaugurar con la mejor de las champañas.
       F#m        C Bm
La ilusión tuvo prisa.
        G          Em
No firmamos salvavidas.
            Bm         C           G
Eso es para otros, no nosotros, no.



                      D                      G
Y ahora el agua nos llega hasta los hombros.
                  D                              G
Y flotando están todos los escombros de nuestro amor.
              Bm       C        Em    F#m  G   A
En contra de todo, seguimos bailando.
            Em
Seguimos bailando.


 F#m
Bailando.
  G      A
Bailando.


          Bm                  G
No hay palabras que no estén dichas.
         D               A
Dijimos todo, dijimos demasiado.
          Bm               G
No hay inocentes entre nosotros.
             D               A
No hubo marineros solo demasiados capitanes.


        Bm              G
Tu no sueltas y yo tampoco.
           D
Y quién diría.
        A         G
Esto es de locos.


                     D                       G
Y ahora el agua nos llega hasta el cuello ya.
                D
El sabor tan salado no es del mar,
             G
si no de lágrimas.


            Bm           C        Em             F#m
Los pies congelados, el pecho apretado contra el tuyo.
     G
Es tan absurdo.


  Pero  hoy bailamos en-un barco           que se  hu-unde.
e---------------------------------------------------3-3----------|
B---------------------------------------------------3-3--3-------|
G---------------------------------------------------0-0--2-------|
D---------0-----2h4-----2-----0---------------------0-0--0-------|
A--0h2-----------------------------2h3p2------------2-2----------|
E--------------------------------------------5------3-3----------|


    D                  G
                          hunde
e----------------------------|
B---3--3/5--5/8--5--3/5-3--3-|
G---2--2/4--4/7--4--2/4-2--0-| (x2)
D---0----------------------0-|
A--------------------------0-|
E--------------------------3-|

Outro: D - G - D
Добавлено: 23.09.2013
Другие материалы по этой песне:
  • Аккорды и текст

Страница создана 23.09.2013
http://primanota.ru/tommy-torres/el-barco-que-se-hunde-chords.htm
Привет, Гость.
Предлагаем пройти революционный курс по гитаре.
Подарок от PrimaNota.Ru, забирай!