PrimaNota.ru - самый крупный в мире бесплатный архив песенных текстов, аккордов, табулатур и нот


Tommy Quickly - Tip Of My Tongue - бас-таба, видео

Регистрация Запомнить меня
Войти через:  Facebook Google Twitter Vk Yandex Mail.ru

Tommy Quickly - Tip Of My Tongue - бас-таба, видео

Печатать
Просмотров: 105
Tip Of My Tongue
Tommy Quickly
Written by John Lennon and Paul McCartney; released as a single with "Heaven Only Knows" as the B-side.

Intro:
G|------- ------- ------- -------|------- ------- ------- -------|
D|7---------------7--------------|-------------------------------|
A|-------------------------------|7-------7---7-------7---7/-----|
E|-------------------------------|-------------------------------|
          Na,     na,     na,     na,


G|------- ------- ------- -------|------- ------- ------- -------|
D|7-------7-------7-------7------|-------------------------------|
A|-------------------------------|7-------7---7-------7---7/-----|
E|-------------------------------|-------------------------------|
          na,     na,     na,     na,


G|------- ------- ------- -------|
D|7-------7-------7-------7------|
A|-------------------------------|
E|-------------------------------|
          na,     na,     na

Verse:
G|------- ------- ------- -------|------- ------- ------- -------|
D|-------------------------------|-------------------------------|
A|7------------------------------|7---------------------------6--|
E|----------------7-------9------|----------------7-------7------|
  When I      want    to          speak   to  you,            it


G|------- ------- ------- -------|------- ------- ------- -------|
D|-------------------------------|-------------------------------|
A|7-----------7------------------|7-----------7------------------|
E|----------------7-------9------|----------------7--------------|
  some -  times   takes       a   week or     two     To


G|------- ------- ------- -------|------- ------- ------- -------|
D|----------------7-------7------|-------------------------------|
A|7------------------------------|7-----------------------7------|
E|-------------------------------|----------------7--------------|
  think of    things          I   want to     say     to      you,


G|------- ------- ------- -------|------- ------- ------- -------|
D|-------------------------------|-------------------------------|
A|--------6-------9-------6---9--|------------------------6------|
E|7------------------------------|7-------7-------9--------------|
                                                      Oh,
                         (oo  -   ooh)

G|------- ------- ------- -------|------- ------- ------- -------|
D|----------------6--------------|7---------------9--------------|
A|7------------------------------|-------------------------------|
E|-------------------------------|-------------------------------|
  words           just        stay    on      the tip of  my


G|------- ------- ------- -------|------- ------- ------- -------|
D|-------------------------------|7---------------7-------7------|
A|7-------7---7-------7---7/-----|-------------------------------|
E|-------------------------------|-------------------------------|
      tongue,                             na,     na,     na

Verse:
G|------- ------- ------- -------|------- ------- ------- -------|
D|-------------------------------|-------------------------------|
A|7------------------------------|7-----------7---------------6--|
E|----------------7-------9------|----------------7-------9------|
  When    the skies   are         not     so  blue,           there's


G|------- ------- ------- -------|------- ------- ------- -------|
D|----------------9\------6------|-------------------------------|
A|7-----------7---------------9--|7-----------7---------------6--|
E|-------------------------------|----------------7-------9------|
  nothing     left    for         me      to  do,             Just


G|------- ------- ------- -------|------- ------- ------- -------|
D|----------------7-----------7--|-------------------------------|
A|7------------------------------|7-----------7---6--------------|
E|-------------------------------|------------------------9------|
  think of    some -  thing   new                     to  say to


G|------- ------- ------- -------|------- ------- ------- -------|
D|-------------------------------|-------------------------------|
A|----------------9-------7------|------------------------6------|
E|7-----------7------------------|7-------7-------9--------------|
  you,                                                Oh,
                         (oo  -   ooh)

G|------- ------- ------- -------|------- ------- ------- -------|
D|----------------6--------------|7---------------9--------------|
A|7------------------------------|-------------------------------|
E|-------------------------------|-------------------------------|
  words           just        stay    on      the tip of  my


G|------- ------- ------- -------|------- ------- ------- -------|
D|-------------------------------|-------------------------------|
A|7-----------7-----------7------|7-------7-------7-------7------|
E|-------------------------------|-------------------------------|
      tongue.
                                  oo  -   oo  -   oo  -   oo-
Bridge:
G|------- ------- ------- -------|------- ------- ------- -------|
D|-------------------------------|6-/-7-------7---6-/-7-------7--|
A|9-----------9---8-/-9-------9--|-------------------------------|
E|-------------------------------|-------------------------------|
  Peo     -       ple             say             I'm
  ooooooooooooooooooooooooooooooooooooooooooooooooooooooooooooooo

G|------- ------- ------- -------|------- ------- ------- -------|
D|-------------------------------|-------------------------------|
A|7-----------7---6-/-7-------7--|7---------------6-/-7-------7--|
E|-------------------------------|-------------------------------|
  lone -  ly,                     On      -       ly
  ooooooooooooooooo               oo  -   oo  -   oo  -   oo-

G|------- ------- ------- -------|------- ------- ------- -------|
D|----------------------------6--|6-/-7-------7---6-/-7-------7--|
A|9-----------9---8-/-9----------|-------------------------------|
E|-------------------------------|-------------------------------|
  you             know                    that's          not
  ooooooooooooooooooooooooooooooooooooooooooooooooooooooooooooooo

G|------- ------- ------- -------|------- ------- ------- -------|
D|-------------------------------|--------6----------------------|
A|7-----------7---6-/-7-------7--|7-----------9---7-------7------|
E|-------------------------------|-------------------------------|
  true,                           You
  ooooooooooooooooo               oo  -   oo  -   oo  -   oo-

G|------- ------- ------- -------|------- ------- ------- -------|
D|----------------------------6--|6-/-7-------7---6-/-7-------7--|
A|9---------------8-/-9----------|-------------------------------|
E|-------------------------------|-------------------------------|
  know            I'm             wai     -       ting
  ooooooooooooooooooooooooooooooooooooooooooooooooooooooooooooooo

G|------- ------- ------- -------|------- ------- ------- -------|
D|-------------------------------|-------------------------------|
A|7---------------6-/-7-------7--|7---------------7--------------|
E|-------------------------------|-------------------------------|
          for         a           chance                  To
  ooooooooooooooooo               oo  -   oo  -   oo  -   oo-

G|------- ------- ------- -------|------- ------- ------- -------|
D|-------------------------------|-------------------------------|
A|9---------------8-/-9---9------|8-/-9---9-------8-/-9---9------|
E|-------------------------------|-------------------------------|
  prove           my              love                    to
  aaaaaaaaaaaaaaaaaaaaaaaaaaaaaaaaaaaaaaaaaaaaaaaaaaaaaaaaa

G|------- ------- ------- -------|------- ------- ------- -------|
D|-------------------------------|-------------------------------|
A|-------------------------------|----------------6-------6------|
E|7-------7-------7-------7------|9-------9----------------------|
  you.
  oo  -   oo      -       oo  -   oo      -       ooh
Verse:
G|------- ------- ------- -------|------- ------- ------- -------|
D|-------------------------------|-------------------------------|
A|7-----------7---------------6--|7-----------7---7--------------|
E|----------------7-------9------|--------------------7---9------|
  Soon    e - nough   my          time will   come,           and


G|------- ------- ------- -------|------- ------- ------- -------|
D|-------------------------------|-------------------------------|
A|7-----------7------------------|7-----------7------------------|
E|----------------7-------9------|----------------7-------9------|
  af  -   ter     all     is      said and    done,   I'll


G|------- ------- ------- -------|------- ------- ------- -------|
D|----------------7-------7------|-------------------------------|
A|7-------7----------------------|7---------------6--------------|
E|-------------------------------|------------------------9------|
  marry       you,            and we  will        live as     one


G|------- ------- ------- -------|------- ------- ------- -------|
D|-------------------------------|-------------------------------|
A|----------------6---9---6---9--|------------------------6------|
E|7-----------7------------------|7-------7-------9--------------|
                                                      With
                         (oo  -   ooh)

G|------- ------- ------- -------|------- ------- ------- -------|
D|----------------6--------------|7---------------9--------------|
A|7------------------------------|-------------------------------|
E|-------------------------------|-------------------------------|
  no              more        words   on      the tip of  my


G|------- ------- ------- -------|------- ------- ------- -------|
D|-------------------------------|-------------------------------|
A|7-----------------------5------|7------------------------------|
E|-------------------------------|-------------------------------|
  tongue.

Bridge:
G|------- ------- ------- -------|------- ------- ------- -------|
D|----------------------------6--|6-/-7-------7---6-/-7-------7--|
A|9-----------9---8-/-9---9------|-------------------------------|
E|-------------------------------|-------------------------------|
  Peo     -       ple             say             I'm
  ooooooooooooooooooooooooooooooooooooooooooooooooooooooooooooooo

G|------- ------- ------- -------|------- ------- ------- -------|
D|-------------------------------|-------------------------------|
A|6-/-7---7---7---6-/-7---7---7--|6-/-7-----------6-/-7----------|
E|-------------------------------|-------------------------------|
  lone -  ly,                     On      -       ly
  ooooooooooooooooo               oo  -   oo  -   oo  -   oo-

G|------- ------- ------- -------|------- ------- ------- -------|
D|-------------------------------|6-/-7---7---7---6-/-7---7------|
A|9---------------8-/-9---8-/-9--|-------------------------------|
E|-------------------------------|-------------------------------|
  you             know                    that's          not
  ooooooooooooooooooooooooooooooooooooooooooooooooooooooooooooooo

G|------- ------- ------- -------|------- ------- ------- -------|
D|-------------------------------|-------------------------------|
A|7-----------7---7-------7---7--|7-------7-------7-------7------|
E|-------------------------------|-------------------------------|
  true,                           You
  ooooooooooooooooo               oo  -   oo  -   oo  -   oo-

G|------- ------- ------- -------|------- ------- ------- -------|
D|----------------------------6--|6-/-7-------7---6-/-7-------7--|
A|9-----------9---8-/-9----------|-------------------------------|
E|-------------------------------|-------------------------------|
  know            I'm             wai     -       ting
  ooooooooooooooooooooooooooooooooooooooooooooooooooooooooooooooo

G|------- ------- ------- -------|------- ------- ------- -------|
D|-------------------------------|-------------------------------|
A|7-----------7---6-/-7-------7--|7-----------7---7-------7------|
E|-------------------------------|-------------------------------|
          for         a           chance                  To
  ooooooooooooooooo               oo  -   oo  -   oo  -   oo-

G|------- ------- ------- -------|------- ------- ------- -------|
D|-------------------------------|------------------------7------|
A|8-/-9---9---9---8-/-9---9---9--|8-/-9-------9---8-/-9----------|
E|-------------------------------|-------------------------------|
  prove           my              love                    to
  aaaaaaaaaaaaaaaaaaaaaaaaaaaaaaaaaaaaaaaaaaaaaaaaaaaaaaaaa

G|------- ------- ------- -------|------- ------- ------- -------|
D|9-----------9---8-/-9---9------|-------------------------------|
A|-------------------------------|----------------6-------6------|
E|-------------------------------|9-------9----------------------|
  you.
  oo  -   oo      -       oo  -   oo      -       ooh
Verse:
G|------- ------- ------- -------|------- ------- ------- -------|
D|-------------------------------|-------------------------------|
A|7-------7-------------------6--|7-------6-------4--------------|
E|----------------7-------9------|------------------------7------|
  Soon    e - nough   my          time will   come,           and


G|------- ------- ------- -------|------- ------- ------- -------|
D|----------------9\------6------|-------------------------------|
A|7-------7----------------------|7-------6----------------------|
E|-------------------------------|----------------7-------9------|
  af  -   ter     all     is      said and    done,   I'll


G|------- ------- ------- -------|------- ------- ------- -------|
D|----------------7-------7------|-------------------------------|
A|7-------7----------------------|7-------7-------6--------------|
E|-------------------------------|------------------------9------|
  marry       you,            and we  will        live as     one


G|------- ------- ------- -------|------- ------- ------- -------|
D|-------------------------------|-------------------------------|
A|--------6-------9-------6---9--|------------------------6------|
E|7------------------------------|7-------7-------9--------------|
                                                      With
                         (oo  -   ooh)

G|------- ------- ------- -------|------- ------- ------- -------|
D|----------------6--------------|7---------------9--------------|
A|7------------------------------|-------------------------------|
E|-------------------------------|-------------------------------|
  no              more        words   on      the tip of  my


G|------- ------- ------- -------|------- ------- ------- -------|
D|----------------6--------------|7-----------7---9--------------|
A|7------------------------------|-------------------------------|
E|-------------------------------|-------------------------------|
  tongue, no      more,   no  words   on      the tip of  my  tongue,
         (no      more        words   on      the tip of  my,
Outro:
G|------- ------- ------- -------|------- ------- ------- -------|
D|----------------6--------------|7---------------9--------------|
A|7-------7----------------------|-------------------------------|
E|-------------------------------|-------------------------------|
          No, no,     no      words   on      the tip of  my
          no      more        words   on      the tip of  my)

G|------- ------- ------- -------|------- ------- ------- -------|
D|----------------5--------------|-------------------------------|
A|7------------------------------|3---------------5--------------|
E|-------------------------------|-------------------------------|
  tongue.
  aa      -       aa      -       aa      -       aa-

G|------- ------- ------- -------|------- ------- ------- -------|
D|-------------------------------|-------------------------------|
A|7-------7---7-------7---7------|7------------------------------|
E|-------------------------------|-------------------------------|

  aaaaaaaaaaaaaaaaaaaaaaaaaaaaaaaaa

Please e-mail me for any corrections, or write a comment.
Добавлено: 18.07.2015
Другие материалы по этой песне:
  • Аккорды и текст

Страница создана 18.07.2015
http://primanota.ru/tommy-quickly/tip-of-my-tongue-chords.htm
Привет, Гость.
Предлагаем пройти революционный курс по гитаре.
Подарок от PrimaNota.Ru, забирай!