PrimaNota.ru - самый крупный в мире бесплатный архив песенных текстов, аккордов, табулатур и нот


Tommy James - Distant Thunder - бас-таба, видео

Регистрация Запомнить меня
Войти через:  Facebook Google Twitter Vk Yandex Mail.ru

Tommy James - Distant Thunder - бас-таба, видео

Печатать
Просмотров: 109
Tabbed by: 6METAL6BASSIST6
E-mail: petergriffinav@gmail.com

Tuning: EADG

0:23

G|/---11--9---8---6-------------------|
D|--------------------9---8---6---4---|
A|------------------------------------|
E|------------------------------------|

G|----------------------------------------------------------------|.
D|--------------------------------4-----------4---4---------------|.
A|7-----------7---7-----------------------------------------------|.
E|------------------------7-------------------------------7-------|.
                                                                   . x4
G|----------------------------------------------------------------|.
D|--------------------------------4-----------4---4---------------|.
A|7-----------7---7---------------------------------------4---6---|.
E|------------------------7---------------------------------------|.

G|----------------------------------------------------------------|
D|----------------------------------------------------------------| x3
A|------------------------2-------------------------------2-------|
E|--------------------------------2-----------2---2---------------|

G|----------------------------------------------------------------|
D|----------------------------------------------------------------|
A|------------------------2---------------------------------------|
E|--------------------------------2-----------2---2-------2---2---|

1:14

G|----------------------------------------------------------------|
D|--------------------------------------------------------6-------|
A|----------------------------------------------------6-------6---|
E|4-----------4---4-----------4---4-------------------------------|

G|----------------------------------------------------------------|
D|--------------------------------6-/-8-/-9-/-11------9---8-------|
A|----------------------------6-------------------------------9---|
E|4-----------4---4-----------------------------------------------|

G|----------------------------------------------------------------|
D|------------6---6-----------6---4-----------------------4-------|
A|----------------------------------------------------4-------4---|
E|----------------------------------------------------------------|

G|----------------------------------------------------------------|
D|------------------------------------------------4---------------|
A|7-----------7---7---6---4---2-----------------------7---6---4---|
E|--------------------------------2---2---2---2-------------------|

1:31

G|----------------------------------------------------------------|
D|----------------------------------------------------------------|
A|--------------------------------------------------------2-------|
E|0-----------0---0---------------2-----------2---2---------------|

G|----------------------------------------------------------------|
D|----------------------------------------------------------------| x2
A|------------------------2-------------------------------2-------|
E|0-----------0---0---------------2-----------2---2---------------|

G|----------------------------------------------------------------|
D|------------------------------------------------4---------------|
A|------------------------2---------------------------7---6---4---|
E|0-----------0---0---------------2-----------2-------------------|

G|----------------------------------------------------------------|
D|----------------------------------------------------------------|
A|--------------------------------------------------------2-------|
E|0-----------0---0---------------2-----------2---2---------------|

G|----------------------------------------------------------------|
D|----------------------------------------------------------------| x2
A|------------------------2-------------------------------2-------|
E|0-----------0---0---------------2-----------2---2---------------|

G|----------------------------------------------------------------|
D|------------------------------------------------4-------4-/-6---|
A|------------------------2---------------------------4-----------|
E|0-----------0---0---------------2-----------2-------------------|

G|--------------------------------|
D|4---------------4---------------|
A|--------------------7---6---4---|
E|--------------------------------|

G|----------------------------------------------------------------|
D|--------------------------------4-----------4---4---------------| x2
A|7-----------7---7---------------------------------------4---6---|
E|------------------------7---------------------------------------|

2:14

G|----------------------------------------------------------------|
D|----------------------------------------------------------------| x3
A|------------------------2-------------------------------2-------|
E|0-----------0---0---------------2-----------2---2---------------|

G|----------------------------------------------------------------|
D|----------------------------------------------------------------|
A|------------------------2---------------------------------------|
E|0-----------0---0---------------2-----------2---2-------2---2---|

G|----------------------------------------------------------------|
D|----------------------------------------------------------------|
A|------------------------------------------------------------6---|
E|4---------------------------------------------------------------|

G|----------------------------------------------------------------|
D|6-------------------------------6---8---9-/-11------9---8-------|
A|------------------------------------------------------------9---|
E|----------------------------------------------------------------|

G|----------------------------------------------------------------|
D|--------------------------------8---9---11--9-------8h9p8-------|
A|------------------------------------------------------------9---|
E|----------------------------------------------------------------|

G|----------------------------------------------------------------|
D|----------------------------------------------------------------|
A|7---------------------------------------------------------------|
E|----------------------------------------2---2---2---2---2---2---|

G|--------------------------------|
D|--------4---4-------------------|
A|----4-----------7---6---4---2---|
E|2-------------------------------|

2:49

G|----------------------------------------------------------------|
D|----------------------------------------------------------------|
A|--------------------------------------------------------2-------|
E|0-----------0---0---------------2-----------2---2---------------|

G|----------------------------------------------------------------|
D|----------------------------------------------------------------|
A|------------------------2-------------------------------2-------|
E|0-----------0---0---------------2-----------2---2---------------|

G|----------------------------------------------------------------|
D|----------------------------------------------------------------|
A|--------------------------------------------------------2-------|
E|0-----------0---0---------------2-----------2---2---------------|

G|----------------------------------------------------------------|
D|------------------------------------------------4---------------|
A|----------------------------------------------------7---6---4---|
E|0-----------0---0---------------2-----------2-------------------|

G|----------------------------------------------------------------|
D|----------------------------------------------------------------|
A|--------------------------------------------------------2-------|
E|0-----------0---0---------------2-----------2---2---------------|

G|----------------------------------------------------------------|
D|----------------------------------------------------------------|
A|------------------------2-------------------------------2-------|
E|0-----------0---0---------------2-----------2---2---------------|

G|----------------------------------------------------------------|
D|----------------------------------------------------------------|
A|--------------------------------------------------------2-------|
E|0-----------0---0---------------2-----------2---2---------------|

G|----------------------------------------------------------------|
D|------------------------------------------------4---4-----------|
A|--------------------------------------------------------7---6---|
E|0-----------0---0-----------0---2---2---2---2-------------------|

3:22

G|----------------------------------------------------------------|
D|----------------------------------------------------------------| x3
A|--------------------------------------------------------2-------|
E|0-----------0---0---------------2-----------2---2---------------|

G|----------------------------------------------------------------|
D|----------------------------------------4---4---4-/-4---4-/-4---|
A|------------------------2---------------------------------------|
E|0-----------0---0---0-----------2---2---------------------------|

G|--------------------------------|
D|4---4---------------------------|
A|--------7---6---7---6---4---2---|
E|--------------------------------|

G|----------------------------------------------------------------|
D|----------------------------------------------------------------|
A|--------------------------------------------------------2-------|
E|0-----------0---0---------------2-----------2---2---------------|

G|----------------------------------------------------------------|
D|----------------------------------------------------------------|
A|------------------------2-------------------------------2---4---|
E|0-----------0---0---------------2-----------2---2---------------|

G|----------------------------------------------------------------|.
D|----------------------------------------------------------------|.
A|--------------------------------------------------------2-------|.
E|0-----------0---0---------------2-----------2---2---------------|.
                                                                   . x2
G|----------------------------------------------------------------|.
D|------------------------------------------------4---------------|.
A|------------------------2---------------------------7---6---4---|.
E|0-----------0---0---------------2-----------2-------------------|.

G|----------------------------------------------------------------|
D|----------------------------------------------------------------|
A|--------------------------------------------------------2-------|
E|0-----------0---0---------------2-----------2---2---------------|

G|----------------------------------------------------------------|
D|------------------------------------------------4---------------|
A|------------------------2---2-----------------------7---6---4---|
E|0-----------0---0---------------2---2---2---2-------------------|

4:13

G|----------------------------------------------------------------|
D|----------------------------------------------------------------|
A|--------------------------------------------------------2-------|
E|0-----------0---0---------------2-----------2---2---------------|

G|----------------------------------------------------------------|
D|----------------------------------------------------------------|
A|------------------------2-------------------------------2---4---|
E|0-----------0---0---------------2-----------2---2---------------|

G|----------------------------------------------------------------|.
D|----------------------------------------------------------------|.
A|--------------------------------------------------------2-------|.
E|0-----------0---0---------------2-----------2---2---------------|.
                                                                   . x3 fades out during the 3rd one.
G|----------------------------------------------------------------|.
D|------------------------------------------------4---------------|.
A|------------------------2---------------------------7---6---4---|.
E|0-----------0---0---------------2-----------2-------------------|.
Добавлено: 06.08.2015
Другие материалы по этой песне:
  • Аккорды и текст

Страница создана 06.08.2015
http://primanota.ru/tommy-james/distant-thunder-chords.htm
Привет, Гость.
Предлагаем пройти революционный курс по гитаре.
Подарок от PrimaNota.Ru, забирай!