PrimaNota.ru - самый крупный в мире бесплатный архив песенных текстов, аккордов, табулатур и нот


Tommy Guerrero - Diy - таба, бас-таба, видео

Регистрация Запомнить меня
Войти через:  Facebook Google Twitter Vk Yandex Mail.ru

Tommy Guerrero - Diy - таба, бас-таба, видео

Печатать
Просмотров: 139
I didn't see this anywhere on the site so I'd thought i'd contribute.

Standard Tuning (E)

x = dead note
h = hammer on
p = pulloff
s = slide to (then tab to be played)


/------9-9---------------9-9--------------9-9----------------|
/--7--------10-10-7--7-7-----10-10-7-7----------10-10-7------|
/--------------------------------------7---------------------|
/------------------------------------------------------------|
/------------------------------------------------------------|
/------------------------------------------------------------|

/-------9-9-------9------------------------------------------|
/--7--------10-10---10---------------------------------------|
/----7-------------------------------------------------------|
/------------------------------------------------------------| X2
/------------------------------------------------------------|
/------------------------------------------------------------|

then...

/--7--7--10--9--7---14-14-17-15-14---10-10-12-10-10----------|
/--7--7--7---7--7---14-14-14-14-14---10-10-10-10-10----------|
/------------------------------------------------------------|
/------------------------------------------------------------|
/------------------------------------------------------------|
/------------------------------------------------------------|

/--10-10-12--9--9--------------------------------------------|
/--10-10-10-10-10--------------------------------------------|
/------------------------------------------------------------|
/------------------------------------------------------------| X2
/------------------------------------------------------------|
/------------------------------------------------------------|

Repeat main riff here (first part shown above^)

/------------------------------------------------------------|
/------------------------------------------------------------|
/------------------------------------------------------------|
/--12-11-x-9--7h9-9-x--12-x-11-9-7h9-9-9p7-7p---------7------|
/---------------------------------------------9----7-9-------|
/------------------------------------------------------------|

then...

/--7----10p9p7-------7-----------12--14----------------------|
/--7-----------7-10--7-------12--12--12----------------------|
/------------------------7s12----12--12----------------------|
/------------------------------------------------------------|
/------------------------------------------------------------|
/------------------------------------------------------------|
    ^this riff used re-occuringly, place as necessary^

-then play opening riff until song end.

This song is beautiful and incredible to listen to, a true work of art.

Tommy Guerrero is a genius in my estimation, and this is my humble tribute to his 
work.
I labeled this song advanced because of the technique and soul it requires to make it 
good and right.
Please bare with me.

Tab author: Josh
Song Author: Tommy Guerrero

Keep your eyes open, I may make more tabs for Tommy.
Добавлено: 22.05.2012
Другие материалы по этой песне:
  • Аккорды и текст

Страница создана 10.05.2012
http://primanota.ru/tommy-guerrero/diy-chords.htm
Привет, Гость.
Предлагаем пройти революционный курс по гитаре.
Подарок от PrimaNota.Ru, забирай!