PrimaNota.ru - самый крупный в мире бесплатный архив песенных текстов, аккордов, табулатур и нот


Tommy Emmanuel - Tequila Slammer - таба, видео

Регистрация Запомнить меня
Войти через:  Facebook Google Twitter Vk Yandex Mail.ru

Tommy Emmanuel - Tequila Slammer - таба, видео

Печатать
Просмотров: 364
Уроки эстрадного вокала в Санкт-Петербурге
artist:TOMMY EMMANUEL~~
song:Tequila Slammer

tabbed by paul bullen (dirtydog699@hotmail.com)

I DECLARE THIS FILE IS 100% ALL MY OWN WORK!

this tab is an general guide to the song, there are many parts that are 
simply repeated with different licks (just improvise on the key), and there 
are many other missing sounds,etc that are way to tedious to work out, so i 
hav just put in the general layout of LEAD and BACKUP parts.
tom is an awsome guitarist, i reccomend all of you to learn blue moon, with 
the double playing.

 intro>
[1ST PART]
{artificial harmonics}
BACKING
e---3-3--3---
B--3---3-----
G----2----2--
D------------
A------------
E------------
LEAD (2nd time thru play artificial harmonically)
e---0-0-2-0--
B--0---0-3---
G------------
D------------
A------------
E------------
(3rd time thru)
e---12-12--12h14p12-10-12--
B-12-----12----------------
G--------------------------
D--------------------------
A--------------------------
E--------------------------
[2ND PART]
BACKING (or you can just add it in before the lead!)
play an open E chord doing that opening of the hand movement thingy to get 
that sound
LEAD (play twice)
e--12-12-12-12----4-4-5-2-4------------1--
B--12-12-12-12----5-5-6-3-5------------0--
G--9--9--9--9-----4-4-5-2-4--9-11-7-9--2--
D----------------------------9-11-7-9--2--
A----------------------------7-9--5-7--2--
E--------------------------------------0--
[3RD PART]
BACKING(special mexican strumming)
  E  F  G  F  E
e-0--1--3--------
B-0--1--3--------
G-1--2--4--------
D-2--3--5--------
A-2--3--5--------
E-0--1--3--------
LEAD  (1st time thru)
                |||| --rapid tremolo picking for this note
e---------------|--|----8--------12-10--------10-8h10p8------------
B-----9-9h12-12-|12|-10-----10-13--------10-13---------10-10/12-12-
G--9-9----------|--|------10-----------10--------------------------
D---------------|--|-----------------------------------------------
A---------------|--|-----------------------------------------------
E---------------|--|-----------------------------------------------
(2nd time thru)
e---------------|--| just play the same as above    /\
B------9-9h12-12|12|                               /||\
G---9-9---------|--|                              / || \
D--9-9----------|--|                                ||
A---------------|--|                                ||
E---------------|--|
(3rd time thru)
               ||| --tremolo (very fast) picking
e--------------|-|------>
B--------------|-|------>
G--------------|-|-------->   next line
D-----6-6h9-9--|9|-7-10-->
A--7-7---------|-|------>
E--------------|-|------>
tricky bit(think i got it close but not exact)
e------------------------------------
B------------------------------------
G--------------------9-7-------------
D--7-10-9-7--7-9-10-7---10-9-7--7h9-9
A-7--------10-----------------10-----
E------------------------------------
play 2ND PART again
then play 3RD PART again

[4TH PART]...incomplete
Am G Esus E (x2)
A D G~~~~~
E F E (x5)
-----------
back to 3RD PART (different licks though!)
-----------
 outro>
  E F E F E F ?  ?
e-------------11-12-
B-------------11-12-
G-------------8--13-
D-------------------
A-------------------
E-------------------
 ^Ãine>
     
Добавлено: 29.08.2013
Другие материалы по этой песне:
  • Аккорды и текст

Страница создана 29.08.2013
http://primanota.ru/tommy-emmanuel/tequila-slammer-chords.htm
Привет, Гость.
Предлагаем пройти революционный курс по гитаре.
Подарок от PrimaNota.Ru, забирай!