PrimaNota.ru - самый крупный в мире бесплатный архив песенных текстов, аккордов, табулатур и нот


Tommy Emmanuel - Only Elliot - таба, видео

Регистрация Запомнить меня
Войти через:  Facebook Google Twitter Vk Yandex Mail.ru

Tommy Emmanuel - Only Elliot - таба, видео

Печатать
Просмотров: 460
Уроки эстрадного вокала в Санкт-Петербурге
-------------------------------------------------------------------------------
                        Tommy Emmanuel - Only Elliot  Tabs By Lukas Siaulys (Lukyyys)
-------------------------------------------------------------------------------
Tabbed by:
E-mail:
Capo on 2nd fret
Tuning: EADGBe

e|--------------------0---3---x---5---------------------0h3------------------|
B|---------------3----0---0---x---2---5---x---7-----x--------3---------------|
G|---0---2---4--------0---0---x---2---2---x---4-----x------------------------|
D|---0-------x----------------------------x---4-----x------------------------|
A|--------------------3---------------4---x-----6---x-----------x------------|
E|---2-------x--------------------2-------x---4-----x---0-------x------------|
************************************

| /   slide up
| \   slide down
| h   hammer-on
| p   pull-off
| ~   vibrato
| +   harmonic
| x   Mute note
| b   Bend
| pb  Pre-bend
| br  Bend release
| pbr Pre-bend release
| brb Bend release bend

************************************





Добавлено: 27.07.2015
Другие материалы по этой песне:

Страница создана 27.07.2015
http://primanota.ru/tommy-emmanuel/only-elliot-chords.htm
Привет, Гость.
Предлагаем пройти революционный курс по гитаре.
Подарок от PrimaNota.Ru, забирай!