PrimaNota.ru - самый крупный в мире бесплатный архив песенных текстов, аккордов, табулатур и нот


Tommy Emmanuel - Mona Lisa - таба, видео

Регистрация Запомнить меня
Войти через:  Facebook Google Twitter Vk Yandex Mail.ru

Tommy Emmanuel - Mona Lisa - таба, видео

Печатать
Просмотров: 318
Song Title:		Mona Lisa
Artist:			Tommy Emmanuel

Transcribed by:		Dave Latta (dave45676@hotmail.com)
Date Transcribed:	         7/01/2004
Notes:			Dropped D (DADGBe)

e--5--4--7--5-------------7p5--4---7--5-s--2--------------------10-----10-9---
B--7--6--8--7-------------7----6---8--7-s--3--3----3--------------------------
G------------------------------------------------4----2------------11---------
D-------------------0----------------------------5----0-----------------------
A-----------------------------------------------------------------------------
D---------------0-----------------------------------------0-------------------


---9---7--8p7--5--5----------2---3---5---0---------------------------0-------
----------------------------0------------2-----------2--3--4--------2--------
--9----7----------6--------2-----4---6-------------0---------------0---------
--------------------------0----------------------0----------------2----------
--------------------------------------------------------------0--------------
-----------------------0----------------------2------------------------------


---------------------3--7---6---9bu--7--h9p7---------------0-------2---0-----
------------0--3-4-5---------------------------8--7--9bu-------4-------------
--------0-2------------------------------------------------------------------
--2-3-4----------------------------------------------------------------------
-----------------------------------------------------------------------------
-----------------------------------------------------------------------------


----------0---------------------------2h3---------------------5--------------
--------0---0----------------2h3-----------------------------6-----8-------7-
------6-------6--------2------------------------- 4>--------6-------------6--
----5---------------------------- 2>-----------------------5-------------7---
--0---------------------- 2>-----------------------------0-------------------
-----------------------------------------------------------------------0-----

                                          .
---------------------------------------5--4----7-----5----------7p5--4-------
------------0-----0-------------------6--------8-----7----------7----6-------
-----6---------7--------(12)---------6---------------------------------------
--7------6-------------(12)---------5-------------0------0-------------------
----------------------(12)---------------------------------------------------
-----------------------------------------------0-----0-----------------------


--7--5-s-2----------------------10---9--10p9----7h8p7-5----5--p2-s3--5--s7---
--8--7-s-3---3---------------------------------------------------------------
-----------------4----2---------11---9---9------7-----6----5-----------------
-----------------5----0------------------------------------------------------
-----------------------------------------------------------------------------
-----------------------------0-----------------------------------------------


                            .
-------------7--------7-----3----5-----6-----------6---8---s--10---12p10-----
----------0-----4---4-------5----4-----3-----------8--10---s--11---11--------
--------0---------0-----------0-----0------0---------------------------------
------0----------------------------------------------------------------------
-----------------------------------------------------------------------------
---5-------------------------------------------------------------------------


--8h10p8----6---8p6---5-------------------------5-h7--5--5-------------------
-10---------8---8-----7--------------------------------------5-----5---------
---------------------------------------6---------------------6----6----------
-----------------------------0------------(12)-------------------5-----------
--------------------------------------------------------------0--------------
--------------------------0-------------------------------------------0------


---7----5---s----2-------2---------------------3-----5------5-s7-------------
---8----7---s----2-------1-----3--3h5p3p2-3-------3-----3---------------0----
---7----6---s----2-------2--------------------------------------------0------
---------------------0----------------------------------------------0--------
-----------------------------------------------------------------------------
---------------0--------------------------------------------------5----------


--7--9--10----------------10p9--s10-s9-p7--7h9-------------------(12)--------
--------------9--------9------------------------------7------(9)--------(12)-
---------------10----10------------------------------6---------------(9)-----
-----------------9--9-------------------------------7------------------------
------------------11---------------------------------------------------------
-------------------------------------------------0---------------------------

                                                 .    .
-------------------0---0----------0--------------3----5----2--h-3--p--2--p0--
------------------0-----0--------0---------------5----7----2--h-3--p--2--p0--
----(9)----------2-------0------2---------(7)----4----6----2-------------p0--
-(9)------------4---------5----4---------------------------------------------
-----------------------------------------------------------------------------
-----------------------------------------------------------------------------

                                       Rake
       .      .                        strings
-------3------5-------0h1s2---1p0---------0--------------------0-------------
------3-------7-------0h1s2---1p0--------3--3----------------3----3----------
-----4--------6-------0h1s2---1p0-------2----2-------------2--------2--------
----5-----------------------------------------4---------4-------------4------
---0-------------------------------------------0-------------------------0---
------------------------------------------------0----------------------------


--------0----------------------------------------------------------------7---
------3---3---------------3--s--10--9--11b12bd----10-------10-9--10b12bd--10-
----1-------1---------0------------------------------------------------------
--3----------------2-------------------------------0-------------------------
---------------0--------------------------------------11-12------------------
------------------------------------------------0-----------------------0----


--------------------------------------------------------9b10--10p9----10s9-7-
-----7h8p7-6-----------------------------------------------------------------
--------------7--6h7p6-4------7---7---7--------------------------------------
-0------------------------7-6-----5---4----------11-12-----------------------
--------------------------------------------5--------------------------------
-----------------------------------------0-----------------------------------


--9p7------------------------------------------------------------------------
------10--10----7-8-9b10-----------------------------------------------------
--------------------------9-----9h13p9s8-----8h12p8s7-----7h11p7s6-----------
-----------------------------------------------------------------------------
-----------------------------------------------------------------------------
-----------------------------------------------------------------------------


----------------------------7-9-10s15---14---12------------------------------
---------------------7-8-10----------------------15-14-12--------------------
----------------9-----------------------------------------14-13-12-11--------
-----------7-11--------------------------------------------------------------
-------7-9--------0----------------------------------------------------------
--7-11-----------------------------------------------------------------------


-----------------------------------------------------------------------------
-----------------------------------12--12s13-14--15-------------14-----------
-------------------------------14--------------------------12------12--------
--14-13-12-11--------------11---------------------------12------------12-----
--------------12-11-10-9-----------------------------12------------------12--
-----------------------------------------------------------------------------


----------------------------------------------6s5----------------------------
------------------8h10p8-8s7---------------8-------8-6-5---------------------
--------14-------------------9-8-7---7-8-9---------------6-5-4-3-------------
-----12----------------------------------------------------------------------
--12-------------------------------------------------------------------------
-----------------------------------------------------------------------------


----------------6-10-6-----------5-9-5-----------6-10-6-----------5-9-5------
-----5---------6------6---------5-----5---------6------6---------5-----5-----
----6-6-------7--------7-------6-------6-------7--------7-------6-------6----
---7---7-----8----------8-----7---------7-----8----------8-----7---------7---
--7-----7---8------------8---7-----------7---8------------8---7-----------7--
-7-------7-8--------------8-7-------------7-8--------------8-7---------------


-----------5--7-8-9--5-------------------------------------------------------
---------6--------------7-5------------------------0-------------------------
-------6--------------------7-6-4-----7------------0-------2-----------------
-----5----------------------------7-6-5--4--0--------------0-------0---------
--0--------------------------------------------------------------------------
--------------------------------------------0---5------4-------2-------------


----------------2-3-5---6-----6--5---5-----4-----7---5---5h7p5--4--7--5s2----
----------2-3-5--------------5-------------------8---7---7------6--8--7s3----
-------4--------------------6------------------------------------------------
-----5---------------------5-----------------------0-------------------------
--0--------------------------------------------------------------------------
---------------------------------------------0-------------------------------


---------------10---9---9----7---7---5--5--p2--s3--5p3---5s7-----------7-----
--3---3-------------------------------------------------------------0--------
--4---2--------11--11--11----7--7----6--5-------------------------0----------
--5---0---------------------------------------------------------0------------
-----------------------------------------------------------------------------
-----------0-------------------------------------------------5---------------


                                    Strum
--------7--------3-----5------6------6--8---10--12--10---8---10---8---6---5--
--4---4---5------5-----4------3------8--10--11--11--11--10---10--10---8---7--
----0---------------0------0-----0-------------------------------------------
-----------------------------------------------------------------------------
-----------------------------------------------------------------------------
-----------------------------------------------------------------------------


                      .    .
--5h7--5-5-----------------7-----5---s----------------------------------3----
----------------5----------8-----7---s----2---h3p2-------1----3h5p3s2h3---3--
---------------6-----------7-----6---s----2--------------2-------------------
--------------5-------7-------------------0--------------0-------------------
-------------0---------------------------------------------------------------
---------------------------------------0-------------------------------------


--5----5s7-------------7--s9-10---------------10--9h10p9---------------------
----3---------------0------------9-------9---------------12--s14-------------
------------------0---------------10---10------------------------------------
----------------0-------------------9--9-------------------------------------
-------------------------------------11--------------------------------------
-------------5-----------------------------------------------------0---------


-----------(12)--------------------------------------------------------------
------(7)-------------(12)---------------------------------------------------
--(5)------------(7)-------------(12)-------------------------------0--------
----------------------------(7)--------------(12)----------------------------
---------------------------------------(7)-------------------(12)------------
-----------------------------------------------------(7)---------------------


-----------------------------------------------3---5----------2-h3p2--0------
-----------------------------------------------------------------------------
-------6--------6-----------------2h4p2-2s1-2-----------------2-------0------
--(12)----(12)-----(12)------------------------------------------------------
------------------------(12)------------------------------0--------------0---
-----------------------------------------------------------------------------


       .        .
-------3--------5------0-h1s2---1p0---------------------------0--------------
------5---------7------0-h1s2---1p0-------3----------------3-----------------
-----4----------6------0-h1s2---1p0---------------------0--------------------
----5-----------7-------------------------4----------4-----------------------
--0-----------------------------------------------0--------------------------
----------------------------------------------0------------------------------

                                                .    .
----------------3-------3---5---2h3p2--0--------3----5---0-h1s2--1p0---------
---------------------0-------------------------5-----7---0-h1s2--1p0---------
--2--4h5p4--p2--------------6---2------0------4------6---0-h1s2--1p0---------
---------------------------------------------5-------7-----------------------
------------------0------------------------0---------------------------------
-----------------------------------------------------------------------------


-----------------------------------2--5--3--3------------3-------------3-----
--3------------3---------------------------------------3----3--------3---3---
--0----------0--------------------------------------3---------3----3-------3-
--4--------4-----------------(12)----------------7--------------7------------
--------0--------------(12)--------------------------------------------------
-----0-----------------------------------------------------------------------


---------3-----------------------------3-------------------------------------
-------3---3------------------------3-----3----------------------------------
-----3-------3-------------------3-----------3-----0-------------------------
---7-----------7--------------7-----------------7---------------------4--7---
--0-------------------------------------------------------------4--7---------
-------------------0---4--5---------------------------5----(7)---------------


                          Sweep pick
                          3 times
--------5--7---9-s-12---------------12-s14----------12---10h12p10------------
-----5----------------11----------11-----------9h10--------------12-10-------
--6---------------------12------12-------------------------------------------
--------------------------11--11---------------------------------------------
----------------------------13-----------------------------------------------
-----------------------------------------------------------------------------


----------------------------------7---------------3--------------------0-----
--8h10p8-7--------------------7---------------3h5----3--5--3---------3-------
-----------7-9--7s6--4-------7--------------3----------------------2---------
------------------------7--6--------------5----------------------0-----------
-----------------------------------------------------------------------------
---------------------------------------------------------------4-------------


----------0----------------------0-------------------------------------------
--------3---3------------------3---3--------------3--3--3-p2-2--0--0---------
------1--------------1-------0-------0----------0---------------------2--2---
----0--------------0-------0-----------0------2------------------------------
--------------------------------------------0--------------------------------
--3--------------3-------2---------------2-----------------------------------


------------------------------------------------------------------2----------
-------------------------------2--3--5--7--8--s10--11---10----8------3-------
--0-------------------------2-------------------------------------------2----
-----4--2--0-------2--4--5--------4--5--7--8--s10--12---10----8------4----4--
--------------4----4--5------------------------------------------------------
------------------------------------------------------------------0----------


-----------------0------------------0--------------------------------0-------
--------------------3------------3------------7--5------3---------3----3-----
------------7---------1--------0-------------6-----------------2---------2---
--6------6--------------3---2---------------5---------------4--------------4-
--5---8--------------------------------0-------------------------------------
--0--------------0----------0---------------------------0--------------------


--------------------------------------(12)-----------------------------------
--------------------------------------------(7)-------------3----------------
----------------------------------------------------------0------------------
------------(12)------(9)--------(5)--------------------4--------------------
-------(12)-------(7)-------(5)-----------------------0----------------------
--(12)-----------------------------------------------------------------------


________________________________________________________________________________
     
Добавлено: 25.09.2013
Другие материалы по этой песне:
  • Аккорды и текст

Страница создана 25.09.2013
http://primanota.ru/tommy-emmanuel/mona-lisa-chords.htm
Привет, Гость.
Предлагаем пройти революционный курс по гитаре.
Подарок от PrimaNota.Ru, забирай!