PrimaNota.ru - самый крупный в мире бесплатный архив песенных текстов, аккордов, табулатур и нот


Tommy Bolin - Sweet Burgundy - аккорды и текст, таба, видео

Регистрация Запомнить меня
Войти через:  Facebook Google Twitter Vk Yandex Mail.ru

Tommy Bolin - Sweet Burgundy - аккорды и текст, таба, видео

Печатать
Просмотров: 101
Sweet Burgundy
Tommy Bolin
G          D            C          D
Wintertime comes just a little too fast
       C          G          C       D      
Summer just flies by on it's patient wings
G          D        C     D
I'm just a fool for yesterdays
          C        G            C    D
I've seen too many things in so many ways
G               D         C           D
At night I just sit in my room by the fire
        C            G             C       D
Looking out my misty window on the streets below
G        D              C           D  
Too many people looking lost and forlorn
    C             G                  C       G                    
Vagabonds without homes and no where else to go
C        G                    C           G
Pour me another glass of that sweet burgundy
C               G       C        D
Maybe that will help to ease the pain
C        G              C       G
Burgundy I guess you're my only friend
D
Sweet Burgundy
G          D                C            D
Outside my window I see the deaf and the blind
        C              G               C      D
Who are pondered for a moment and then left behind
G            D           C    D
Times that I think I was all alone
       C            G               C       G
I just sit back and think I haven't sold my soul


e|-------------------15--17------15------------------------------------------|
B|-----12-13-12---15-------17-15----15-13-12----------12-13-12---------------|
G|---12--------12---------------------------12------12---------12------------|
D|-12-----------------------------------------12-12--------------------------|
A|---------------------------------------------------------------------------|
E|---------------------------------------------------------------------------|

e|----10-15---15-17-15------------17-15--------------------------------------|
B|---------15----------15---15-17-------15---13-12-13-12----13-12------------|
G|-12----------------------------------------------------12-------12-12------|
D|---------------------------------------------------------------------------|
A|---------------------------------------------------------------------------|
E|---------------------------------------------------------------------------|


C        G                    C           G
Pour me another glass of that sweet burgundy
C               G       C        D
Maybe that will help to ease the pain
C        G              C       G
Burgundy I guess you're my only friend
D
Sweet Burgundy


Добавлено: 08.06.2012
Другие материалы по этой песне:
  • Аккорды и текст

Страница создана 08.06.2012
http://primanota.ru/tommy-bolin/sweet-burgundy-chords.htm
Привет, Гость.
Предлагаем пройти революционный курс по гитаре.
Подарок от PrimaNota.Ru, забирай!