PrimaNota.ru - самый крупный в мире бесплатный архив песенных текстов, аккордов, табулатур и нот


Tomhet - Journey Through The Frozen Forest - таба, видео

Регистрация Запомнить меня
Войти через:  Facebook Google Twitter Vk Yandex Mail.ru

Tomhet - Journey Through The Frozen Forest - таба, видео

Печатать
Просмотров: 98
Уроки эстрадного вокала в Санкт-Петербурге
Title: Journey Through the Frozen Forest
Band: Tomhet
Year: 2008
Album: “Himmelszelt” (Skagos/Tomhet split)
Tuning: Standard E

INTRO (tremelo)
E:-------------------------------------------------|
B:-------------------------------------------------|
G:-------------------------------------------------|
D:-------------------------------------------------|
A:---5---3-1---3---5---3-7-8-7-6-------------------|
E:-------------------------------------------------|

CHORUS (tremolo)
E:-------------------------------------------------|
B:-------------------------------------------------|
G:-------------------------------------------------|
D:-------------------------------------------------|
A:---7---5-3---5---7---5-9-10-9-8------------------|
E:---5---3-1---3---5---3-7-8-7-6-------------------|

VERSE 1 (tremolo)
E:-------------------------------------------------|
B:-------------------------------------------------|
G:-------------------------------------------------|
D:-------------------------------------------------|
A:---7------6---8------7------6---9----------------|
E:---5------4---6------5------4---7----------------|

VERSE 2 (tremolo)
E:-------------------------------------------------|
B:-------------------------------------------------|
G:-------------------------------------------------|
D:-------------------------------------------------|
A:---3------2---4------3------2---5----------------|
E:---1------0---2------1------0---3----------------|

CHORUS [exit] (tremolo)
E:--------------------------------------------------|
B:--------------------------------------------------|
G:--------------------------------------------------|
D:--------------------------------------------------|
A:---7---5-3---5---7---5-9-10-9-8-------------------|~~~~~~~~~~~~~~~~~(let it fade out)
E:---5---3-1---3---5---3-7-8-7-6--------------------|~~~~~~~~~~~~~~~~~~(let it fade out)

VERSE 3 (slow strum)
E:-------------------------------------------------|
B:-------------------------------------------------|
G:-------------------------------------------------|
D:-------------------------------------------------|
A:---7----------5----------3----------5------------|
E:---5----------3----------1----------3------------|

ORDER OF THE SONG:

INTRO (x2)
CHORUS (x2)
VERSE 1 (x2)
VERSE 2 (x2)
CHORUS (x2)
VERSE 1 (x2)
VERSE 2 (x2)
CHORUS (x3)
CHORUS [exit] (x1)
VERSE 2 (x6)

http://www.myspace.com/tomhetband
Добавлено: 21.06.2012
Вам также может быть интересно:
Другие материалы по этой песне:
  • Аккорды и текст

Страница создана 21.06.2012
http://primanota.ru/tomhet/journey-through-the-frozen-forest-chords.htm
Привет, Гость.
Предлагаем пройти революционный курс по гитаре.
Подарок от PrimaNota.Ru, забирай!