PrimaNota.ru - самый крупный в мире бесплатный архив песенных текстов, аккордов, табулатур и нот


Tomas Klus - Tamaře - таба, видео

Регистрация Запомнить меня
Войти через:  Facebook Google Twitter Vk Yandex Mail.ru

Tomas Klus - Tamaře - таба, видео

Печатать
Просмотров: 80
-------------------------------------------------------------------------------
                             Tamaře - Tomáš Klus
-------------------------------------------------------------------------------
Tabbed by: blueterricz
E-mail: pantepper@seznam.cz

Tuning: No tunning

e|---5---5---4---4---2---2---4-----7----5---5---4---4---2---2-----4----------|
B|--5-5-5-5-5-5-5-5-3-3-3-3-3-3-3/7-7--5-5-5-5-5-5-5-5-3-3-3-3--3------------|
G|-6---6---6---6---4---4---4---4------6---6---6---6---4---4----4-4-----------|
D|------------------------------------------------------------2--------------|
A|---------------------------------------------------------------------------|
E|---------------------------------------------------------------------------|




************************************

| /   slide up
| \   slide down
| h   hammer-on
| p   pull-off
| ~   vibrato
| +   harmonic
| x   Mute note
| b   Bend
| pb  Pre-bend
| br  Bend release
| pbr Pre-bend release
| brb Bend release bend

************************************
Добавлено: 10.05.2016
Другие материалы по этой песне:
  • Аккорды и текст

Страница создана 10.05.2016
http://primanota.ru/tomas-klus/tamare-chords.htm
Привет, Гость.
Предлагаем пройти революционный курс по гитаре.
Подарок от PrimaNota.Ru, забирай!