PrimaNota.ru - самый крупный в мире бесплатный архив песенных текстов, аккордов, табулатур и нот


Tomahawk - Mayday - текст песни, таба, видео

Регистрация Запомнить меня
Войти через:  Facebook Google Twitter Vk Yandex Mail.ru

Tomahawk - Mayday - текст песни, таба, видео

Печатать
Просмотров: 102
-----------------------------------------------------------------------------
                             Mayday - Tomahawk
-----------------------------------------------------------------------------
Tabbed by: tmv91

Tuning:Standard
 Intro - w/ delay and vibrato
   1           2           3           4           1           2... etc
e|-14-14-14-14-14-14-14-14-14-14-14-14-14-14-14-14-13-13-13-13-13-13-13-13--|
B|--------------------------------------------------------------------------|
G|--------------------------------------------------------------------------|
D|--------------------------------------------------------------------------|
A|--------------------------------------------------------------------------|
E|--------------------------------------------------------------------------|

e|-13-13-13-13-13-13-13-13-14-14-14-14-14-14-14-14-14-14-14-14-14-14-14-14--|
B|--------------------------------------------------------------------------|
G|--------------------------------------------------------------------------|
D|--------------------------------------------------------------------------|
A|--------------------------------------------------------------------------|
E|--------------------------------------------------------------------------|
 heavy vibrato - - - - - - - - - - - - - - - - >
e|-13-13-13-13-13-13-13-13-13-13-13-13-13-13-13-13-10-10-10-10-10-10-10-10--|
B|--------------------------------------------------------------------------|
G|--------------------------------------------------------------------------|
D|--------------------------------------------------------------------------|
A|--------------------------------------------------------------------------|
E|--------------------------------------------------------------------------|

e|-10-10-10-10-10-10-10-10-10b-11-11-11-11-11-11-11-11-11-11-11-11-11-11-11-|
B|--------------------------------------------------------------------------|
G|--------------------------------------------------------------------------|
D|--------------------------------------------------------------------------|
A|--------------------------------------------------------------------------|
E|--------------------------------------------------------------------------|

e|-11-11-11-11-11-11-11-11-11-11-11-11-11-11-11-11-11-11-11-11-11-11-11-11--|
B|-12-12-12-12-12-12-12-12-10-10-10-10-10-10-10-10--8--8--8--8--8--8--8--8--|
G|--------------------------------------------------------------------------|
D|--------------------------------------------------------------------------|
A|--------------------------------------------------------------------------|
E|--------------------------------------------------------------------------|

e|-11-11-11-11-11-11-11\----------------------------------------------------|
B|--8--8--8--8--8--8--8\----------------------------------------------------|
G|--------------------------------------------------------------------------|
D|--------------------------------------------------------------------------|
A|--------------------------------------------------------------------------|
E|--------------------------------------------------------------------------|

 "Kiss kiss, bang bang"
 x2
e|--------------------------------------------------------------------------|
B|--------------------------------------------------------------------------|
G|--------------------------------------------------------------------------|
D|--------1---------1--------------------2-------------------1-----------1--|
A|--------0---------0--------------------0-------------------0-----------0--|
E|-2-0-2-----2-0-2----------------0-2-4---------------2-0-2-------2-0-2-----|

 next
e|--------------------------------------------------------------------------|
B|--------------------------------------------------------------------------|
G|--------------------------------------------------------------------------|
D|--------1---------1---------------------2---------2-----------------------|
A|--------0---------0---------------------0---------0-----------------------|
E|-2-0-2-----2-0-2----2-0-2--------0-2-4-----0-2-4--------------------------|

e|--------------------------------------------------------------------------|
B|--------------------------------------------------------------------------|
G|--------------------------------------------------------------------------|
D|--------1---------1-------------------------------2-----------------------|
A|--------0---------0-------------------------------0-----------------------|
E|-2-0-2-----2-0-2---------------------------0-2-4--------------------------|
 x2
 Riff 1
"Now it seems like i am coming"  x2
e|----------------3--3-3-3-3-3-3-3-|-0-0-0-0-0-0---1--1-1-1-1-1-1-1---------|
B|----------------3--3-3-3-3-3-3-3-|-0-0-0-0-0-0---1--1-1-1-1-1-1-1---------|
G|----------------x--x-x-x-x-x-x-x-|-x-x-x-x-x-x---x--x-x-x-x-x-x-x---------|
D|-9---9-9-9-9----5--5-5-5-5-5-5-5-|-2-2-2-2-2-2---3--3-3-3-3-3-3-3---------|
A|-9---9-9-9-9----5--5-5-5-5-5-5-5-|-2-2-2-2-2-2---3--3-3-3-3-3-3-3---------|
E|-7---7-7-7-7----3--3-3-3-3-3-3-3-|-0-0-0-0-0-0---1--1-1-1-1-1-1-1---------|

 Chorus
e|----------------------------------------------------------------------------------|
B|----------------------------------------------------------------------------------|
G|----------------------------------------------------------------------------------|
D|--------1---------1-------------------2--------2----------------------------------|
A|--------0---------0-------------------0--------0----------------------------------|
E|-2-0-2-----2-0-2----2-0-2-------0-2-4----0-2-4------------------------------------|

 solo(?)
e|--------------------------------------------------------------------------|
B|-17-17-17-17-17-17-11-11-11-11-11-11-13-13-13-13-13-13-16-16-16-16-16-16--|
G|-18-18-18-18-18-18-11-11-11-11-11-11-14-14-14-14-14-14-16-16-16-16-16-16--|
D|--------------------------------------------------------------------------|
A|--------------------------------------------------------------------------|
E|--------------------------------------------------------------------------|

e|--------------------------------------------------------------------------|
B|-16-16-16-16-16-16-16-16-14/16-16-16-16-16-14/16-16-16-16-16-14/16-16-16--|
G|-16-16-16-16-16-16-16-16-14/16-16-16-16-16-14/16-16-16-16-16-14/16-16-16--|
D|--------------------------------------------------------------------------|
A|--------------------------------------------------------------------------|
E|--------------------------------------------------------------------------|

e|--------------------------------------------------------------------------|
B|-11-11-11-11-11-11-13-13-13-13-13-13-16-16-16-16--------------------------|
G|-11-11-11-11-11-11-14-14-14-14-14-14-16-16-16-16--------------------------|
D|--------------------------------------------------------------------------|
A|--------------------------------------------------------------------------|
E|--------------------------------------------------------------------------|

e|--------------------------------------------------------------------------|
B|-17-17-17-17-17-17-11-11-11-11-11-11-13-13-13-13-13-13-16-16-16-16-16-16--|
G|-18-18-18-18-18-18-11-11-11-11-11-11-14-14-14-14-14-14-16-16-16-16-16-16--|
D|--------------------------------------------------------------------------|
A|--------------------------------------------------------------------------|
E|--------------------------------------------------------------------------|

e|--------------------------------------------------------------------------|
B|-16-16-16-16-16-16-16-16-16--14--16--14--16--14--16--14--16--14--16--14---|
G|-16-16-16-16-16-16-16-16-16--14--16--14--16--14--16--14--16--14--16--14---|
D|--------------------------------------------------------------------------|
A|--------------------------------------------------------------------------|
E|--------------------------------------------------------------------------|

e|--------------------------------------------------------------------------|
B|-11-11-11-11-13-13-13-13-14-14-14-14-16-16-16-16--------------------------|
G|-11-11-11-11-13-13-13-13-14-14-14-14-16-16-16-16--------------------------|
D|--------------------------------------------------------------------------|
A|--------------------------------------------------------------------------|
E|--------------------------------------------------------------------------|

e|--------------------------------------------------------------------------|
B|-17-17-17-17-17-17-11-11-11-11-11-11-13-13-13-13-13-13-16-16-16-16-16-16--|
G|-18-18-18-18-18-18-11-11-11-11-11-11-14-14-14-14-14-14-16-16-16-16-16-16--|
D|--------------------------------------------------------------------------|
A|--------------------------------------------------------------------------|
E|--------------------------------------------------------------------------|

e|------------------------------17-----17-----17-----17-----17-----17-----17|
B|16-16-16-16-16-16-16-16-16b17---16b17--16b17--16b17--16b17--16b17--16b17--|
G|16-16-16-16-16-16-16-16---------------------------------------------------|
D|--------------------------------------------------------------------------|
A|--------------------------------------------------------------------------|
E|--------------------------------------------------------------------------|

e|--------------------------------------------------------------------------|
B|-17-17-17-17-17-17-11-11-11-11-11-11-13-13-13-13-13-13-16-16-16-16-16-16--|
G|-18-18-18-18-18-18-11-11-11-11-11-11-14-14-14-14-14-14-16-16-16-16-16-16--|
D|--------------------------------------------------------------------------|
A|--------------------------------------------------------------------------|
E|--------------------------------------------------------------------------|

e|--------------------------------------------------------------------------|
B|-16-16-16-16-16-16-16-16-16\14-14-14-14-14-14-14-14-14-14-14-14-14-14-14--|
G|-16-16-16-16-16-16-16-16-16\14-14-14-14-14-14-14-14-14-14-14-14-14-14-14--|
D|--------------------------------------------------------------------------|
A|--------------------------------------------------------------------------|
E|--------------------------------------------------------------------------|

e|--------------------------------------------------------------------------|
B|-14-14-14-14-14-14\-------------------------------------------------------|
G|-14-14-14-14-14-14\-------------------------------------------------------|
D|--------------------------------------------------------------------------|
A|--------------------------------------------------------------------------|
E|--------------------------------------------------------------------------|

kinda like the intro w/ a few changes
   1           2           3           4           1           2... etc
e|-14-14-14-14-14-14-14-14-14-14-14-14-14-14-14-14-13-13-13-13-13-13-13-13--|
B|--------------------------------------------------------------------------|
G|--------------------------------------------------------------------------|
D|--------------------------------------------------------------------------|
A|--------------------------------------------------------------------------|
E|--------------------------------------------------------------------------|

e|-13-13-13-13-13-13-13-13-14-14-14-14-14-14-14-14-14-14-14-14-14-14-14-14--|
B|--------------------------------------------------------------------------|
G|--------------------------------------------------------------------------|
D|--------------------------------------------------------------------------|
A|--------------------------------------------------------------------------|
E|--------------------------------------------------------------------------|
 heavy vibrato - - - - - - - - - - - - - - - - >
e|-13-13-13-13-13-13-13-13-13-13-13-13-13-13-13-13-10-10-10-10-10-10-10-10--|
B|--------------------------------------------------------------------------|
G|--------------------------------------------------------------------------|
D|--------------------------------------------------------------------------|
A|--------------------------------------------------------------------------|
E|--------------------------------------------------------------------------|

e|-10-10-10-10-10-10-10-10-10b11-9-9-9-9-9-9-9-9-9-9-9-9-9-9-9--------------|
B|--------------------------------------------------------------------------|
G|--------------------------------------------------------------------------|
D|--------------------------------------------------------------------------|
A|--------------------------------------------------------------------------|
E|--------------------------------------------------------------------------|

e|-10-10-10-10-10-10-10-10-10-10-10-10-10-10-10-10-10-10-10-10-10-10-10-10--|
B|-12-12-12-12-12-12-12-12-10-10-10-10-10-10-10-10--9--9--9--9--9--9--9--9--|
G|--------------------------------------------------------------------------|
D|--------------------------------------------------------------------------|
A|--------------------------------------------------------------------------|
E|--------------------------------------------------------------------------|

e|-10-10-10-10-10-10-10\----------------------------------------------------|
B|--9--9--9--9--9--9--9\----------------------------------------------------|
G|--------------------------------------------------------------------------|
D|--------------------------------------------------------------------------|
A|--------------------------------------------------------------------------|
E|--------------------------------------------------------------------------|

 "you won't be saved"
e|--------------------------------------------------------------------------|
B|--------4--------4--------------4-----------------------------------------|
G|--------2--------2--------------2-----------------------------------------|
D|--------------------------------------------------------------------------|
A|--------------------------------------------------------------------------|
E|-2-0-2----2-0-2-----------0-2-4-------------------------------------------|

Repeat Riff 1 and Chorus

************************************

| /   slide up
| \   slide down
| h   hammer-on
| p   pull-off
| ~   vibrato
| +   harmonic
| x   Mute note
| b   Bend
| pb  Pre-bend
| br  Bend release
| pbr Pre-bend release
| brb Bend release bend

************************************
Добавлено: 21.08.2013
Другие материалы по этой песне:

Страница создана 17.05.2012
http://primanota.ru/tomahawk/mayday-chords.htm
Привет, Гость.
Предлагаем пройти революционный курс по гитаре.
Подарок от PrimaNota.Ru, забирай!