PrimaNota.ru - самый крупный в мире бесплатный архив песенных текстов, аккордов, табулатур и нот


Tomahawk - Flashback - текст песни, таба, видео

Регистрация Запомнить меня
Войти через:  Facebook Google Twitter Vk Yandex Mail.ru

Tomahawk - Flashback - текст песни, таба, видео

Печатать
Просмотров: 116
-----------------------------------------------------------------------------
                             Flashback - Tomahawk
-----------------------------------------------------------------------------
Tabbed by:tmv91


Tuning: standard
 Intro
   + + + + + +   + +   + + + + + +
e|-5-5-5-5-5-5-x-5-5-x-5-5-5-5-5-5------------------------------------------|
B|--------------------------------------------------------------------------|
G|--------------------------------------------------------------------------|
D|--------------------------------------------------------------------------|
A|--------------------------------------------------------------------------|
E|--------------------------------------------------------------------------|

 Riff 1
e|----------------------------------------------|
B|----------------------------------------------|
G|----------------------------------------------|
D|-7----7-----------7-----7----7-----------7----|
A|---------5--3--5-----5----------5--3--5-----5-|
E|----------------------------------------------|

e|----------------------------------------------|
B|----------------------------------------------|
G|----------------------------------------------|
D|-5----5-----------5-----5----5-----------5----|
A|---------5--3--5-----5----------5--3--5-----5-|
E|----------------------------------------------|

e|----------------------------------------------|
B|----------------------------------------------|
G|----------------------------------------------|
D|-4----4-----------4-----4----4-----------4----|
A|---------5--3--5-----5----------5--3--5-----5-|
E|----------------------------------------------|

e|-----------------------------------------------|
B|-----------------------------------------------|
G|-----------------------------------------------|
D|-3----3-----------3----------------------------|
A|---------5--3--5-----5--3--3--3--5--6--6--6--6-|
E|-----------------------------------------------|

 Chorus
e|--------------------------------------------------------------------------|
B|--------------------------------------------------------------------------|
G|--------------------------------------------------------------------------|
D|-----7---------7-------5---------5-------4--------4---3---3-3-3---3-3-----|
A|-0------3p0--5---5-0------3p0--5---5-0------3p0-5---5-0---3-5-6---6-6-----|
E|--------------------------------------------------------------------------|

e|--------------------------------------------------------------------------|
B|--------------------------------------------------------------------------|
G|--------------------------------------------------------------------------|
D|--------------------------------------------------------------------------|
A|-----7---------7-------5---------5-------4--------4---3---3-3-3--3-3------|
E|-0------3p0--5---5-0------3p0--5---5-0------3p0-5---5-0---3-5-6--6-6------|

e|--------------------------------------------------------------------------|
B|--------------------------------------------------------------------------|
G|--------------------------------------------------------------------------|
D|-----4-------4-------2-------2-------1-------1---0---0---0-0-0--0-0-------|
A|-------0---2---2-------0---2---2-------0---2---2-----0---0-2-3--3-3-------|
E|-2-------2-------2-------2-------2-------2-------2------------------------|
                                                                
e|--------------------------------------------------------------------------|
B|--------------------------------------------------------------------------|
G|-----7---------7-------5---------5-------4--------4---3-------------------|
D|-0------3p0--5---5-0------3p0--5---5-0------3p0-5---5-0-------------------|
A|--------------------------------------------------------------------------|
E|--------------------------------------------------------------------------|

e|--------------------------------------------------------------------------|
B|--------------------------------------------------------------------------|
G|-3-3-3-3-3-3-3-3-3-3-3-3--------------------------------------------------|
D|-3-5-6-6-6-6-6-6-6-6-6-6--------------------------------------------------|
A|--------------------------------------------------------------------------|
E|--------------------------------------------------------------------------|

repeat Riff 1
repeat Chorus
repeat Intro
  
 buncha screaming
e|--------------------------------------------------------------------------|
B|--------------------------------------------------------------------------|
G|--------------------------------------------------------------------------|
D|-----7---------7-------5---------5-------4--------4---3---3-3-3---3-3-----|
A|-0------3p0--5---5-0------3p0--5---5-0------3p0-5---5-0---3-5-6---6-6-----|
E|--------------------------------------------------------------------------|

e|--------------------------------------------------------------------------|
B|--------------------------------------------------------------------------|
G|--------------------------------------------------------------------------|
D|--------------------------------------------------------------------------|
A|-----7---------7-------5---------5-------4--------4---3---3-3-3--3-3------|
E|-0------3p0--5---5-0------3p0--5---5-0------3p0-5---5-0---3-5-6--6-6------|

 "listen to the song my blood is singing"
 x5
e|-------------------|
B|-------------------|
G|-------------------|
D|-----7---------7---|
A|-0------3p0--5---5-|
E|-------------------|

e|--------------------------------------------------------------------------|
B|--------------------------------------------------------------------------|
G|--------------------------------------------------------------------------|
D|-7-7-7-7-7-7-7-7-7-7-7-7-7-7-7-7-7-7\-------------------------------------|
A|-0-0-0-0-0-0-0-0-0-0-0-0-0-0-0-0-0-0--------------------------------------|
E|--------------------------------------------------------------------------|

************************************

| /   slide up
| \   slide down
| h   hammer-on
| p   pull-off
| ~   vibrato
| +   harmonic
| x   Mute note
| b   Bend
| pb  Pre-bend
| br  Bend release
| pbr Pre-bend release
| brb Bend release bend

************************************
Добавлено: 11.10.2013
Другие материалы по этой песне:

Страница создана 13.03.2012
http://primanota.ru/tomahawk/flashback-chords.htm
Привет, Гость.
Предлагаем пройти революционный курс по гитаре.
Подарок от PrimaNota.Ru, забирай!