PrimaNota.ru - самый крупный в мире бесплатный архив песенных текстов, аккордов, табулатур и нот


Tomahawk - Baby Lets Play - таба, видео

Регистрация Запомнить меня
Войти через:  Facebook Google Twitter Vk Yandex Mail.ru

Tomahawk - Baby Lets Play - таба, видео

Печатать
Просмотров: 71
                       Baby Let's Play - TOMAHAWK


Tabbed by: KnuckleChildren
E-mail: danreid1977@optusnet.com.au

Tuning: Standard


   Intro/verse

e|--------------------------------------------------------------------------|
B|--2--1------------------------------4--3----------------------------------|
G|--------1---------------------------------3--0----------------------------|
D|-----------3--------------------------------------------------------------|
A|--------------4--3--3--1------------------------6--5----------------------|
E|--------------------------3-----------------------------------------------|



   Slight verse variation at (1:30)

e|--------------------------------------------------------------------------|
B|--2--1---------------------------------------4--3-------------------------|
G|--------1------------------------------------------3--0-------------------|
D|-----------3--------------------------------------------------------------|
A|--------------4--3--3--1------------3~~------------------6--5-------------|
E|--------------------------3---0--1----------------------------------------|



   Lead-in and Chorus (I give each chord a hint of tremolo)
                               A#dim
e|-----------------------------6--6------------6--6--------------|
B|--2--1-----------------------8--8------------8--8--------------|
G|--------1--------------------6--6------------6--6--------------|
D|-----------3--------------8--8--8---------8--8--8--------------|
A|--------------4--3-----7-----7--7------7-----7--7--------------|
E|--------------------6---------------6--------------------------|


   Chorus(cont;)
             G#dim
e|-----------4--4------------4--4------------6--6------------6--6---|
B|-----------6--6------------6--6------------8--8------------8--8---|
G|-----------4--4------------4--4------------6--6------------6--6---|
D|--------6--6--6---------6--6--6---------8--8--8---------8--8--8---|
A|-----5-----5--5------5-----5--5------7-----7--7------7-----7--7---|
E|--4---------------4---------------6---------------6---------------|


   Chorus (cont;)

e|-----------4--4---4-------|
B|-----------6--6---6-------|
G|-----------4--4---4-------|
D|--------6--6--6---6-------|
A|-----5-----5--5-----------|
E|--4-----------------------|



That's it! Sounds pretty right to my ears.

Song structure is just verse/chorus/verse/chorus, with only a slight variation in the 
2nd verse at (1:30) as shown above.

Enjoy! \m/




************************************

| /   slide up
| \   slide down
| h   hammer-on
| p   pull-off
| ~   vibrato
| +   harmonic
| x   Mute note
| b   Bend
| pb  Pre-bend
| br  Bend release
| pbr Pre-bend release
| brb Bend release bend

************************************
Добавлено: 26.08.2013
Вам также может быть интересно:
Другие материалы по этой песне:
  • Аккорды и текст

Страница создана 26.08.2013
http://primanota.ru/tomahawk/baby-lets-play-chords.htm
Привет, Гость.
Предлагаем пройти революционный курс по гитаре.
Подарок от PrimaNota.Ru, забирай!