PrimaNota.ru - самый крупный в мире бесплатный архив песенных текстов, аккордов, табулатур и нот


Tom Waits - Rockin Chair - текст песни, таба, видео

Регистрация Запомнить меня
Войти через:  Facebook Google Twitter Vk Yandex Mail.ru

Tom Waits - Rockin Chair - текст песни, таба, видео

Печатать
Просмотров: 116
Rockin Chair   --   Tom Waits

Swing beat
Capo 4

  !   !   !   !   !   !   !   !   !   !   !   !   !   !   !   !
|-0---3-------------------------|-0---3-------------------------|
|-----------------3~~-----------|-----------------3~~-----------|
|-------------0---------------0-|-------------0---------------0-|
|---------2---------------0-----|---------2---------------0-----|
|-3-----------------------------|-3-----------------------------|
|-----------------3~~-----------|-----------------3~~-----------|

  sitting right   here    by my   rockin           chair

(one more measure, then:)

  !   !   !   !   !   !   !   !   !   !   !   !   !   !   !   !
|-------------------------------|-0---3-------------------------|
|-0-------------------1---------|-----------------3~~-----------|
|-----2-------------------0-----|-------------0---------------0-|
|---------0---0-H-2-----------2-|---------2---------------0-----|
|-2-----------3-----------------|-3-----------------------------|
|-------------------------------|-----------------3~~-----------|

  through my    hair             (and again, until:)

  !   !   !   !   !   !   !   !   !   !   !   !   !   !   !   !
|-------------------------------|-------------------------------|
|---------3---------------3-----|---------1---------------1-----|
|---------5---------------5-----|---------3---------------3-----|
|---------4---------------4-----|---------2---------------2-----|
|-3/5-------------0-------------|-3-----------------------------|
|-------------------------------|-----------------3-------------|

       times were never  so       good

  !   !   !   !   !   !   !   !   !   !   !   !   !   !   !   !
|-------------------------------|-------------------------------|
|-----------------1-------2-----|-3-------3---------------------|
|-----------------3-------4-----|-5-----------5-------5---------|
|-----------------2-------3-----|-4---4-----------4-----------4-|
|-0---------------3-------4-----|-5-----------------------5-----|
|-------------------------------|-------------------------------|

  well she blew.. took   all     money  

Notes:

The song is probably at capo 7, because sometimes 
he does this:

  !   !   !   !   !   !   !   !
|-0---3-------------------------|
|---------------------3---------|
|---------------3/4-----------4-|
|---------2---------------0-----|
|-3-----------------------------|
|-----------------3~~-----------|

And that fits way better at the 7th capo.  You
can redo it that way if you please; I'm too lazy.  

The "times were never so good" part can be arpeggiated, like this:

  !   !   !   !   !   !   !   !
|-------------------------------|
|---------1-----------1-------1-|
|---------3---------------3-----|
|-----2-------2-----------2-----|   etc., as you hear it
|-3-----------------------------|
|-----------------3-------------|

You may want to look for a better chord for the 
"took all my money" bit
     
Добавлено: 25.10.2013
Другие материалы по этой песне:
  • Аккорды и текст

Страница создана 29.04.2012
http://primanota.ru/tom-waits/rockin-chair-chords.htm
Привет, Гость.
Предлагаем пройти революционный курс по гитаре.
Подарок от PrimaNota.Ru, забирай!