PrimaNota.ru - самый крупный в мире бесплатный архив песенных текстов, аккордов, табулатур и нот


Tom Waits - Old Shoes - текст песни, таба, видео

Регистрация Запомнить меня
Войти через:  Facebook Google Twitter Vk Yandex Mail.ru

Tom Waits - Old Shoes - текст песни, таба, видео

Печатать
Просмотров: 224
Old Shoes (And Picture Postcards)
Tom Waits
Album: Closing Time
Tabbed by Reuben Gann(reubengann@hotmail.com)

Intro:|G G C G|G D G|G D

G        C           G
I'm ... time...      sung
                               D
...                     for a while,
G                  C              G            C
But...            now, ...      truth is so clear
       G            D          G
...   cry ...      seeing you smile.
   G           C         G             C
.. goodbye, so long, the road ...     dear
         G                          D
...     tears ...                anymore,
        G           C             G          C
And farewell ...   girl ...      sun ...    eyes
      G             D            G
...  kiss you, and then ...     gone.

Solo (1:48), For timing follow chords like in the verse
G       G           C       G
------------------------------------------
------------------------1-0---------------
------0-2/4-2-0-2-0---0-----0-----------0-
--0-2---------------2---------2-0---0-2---
------------------------------------------
------------------------------------------
G                          D
-----------------------------------------
-----3------------3----------------------
-2/4---4-2-0--2/4---4-2-0------2---------
---------------------------2/4---4-2-0---
-----------------------------------------
-----------------------------------------
       G          C      G         C
--------------3---3-3----7------7--8--8----------------
------------3--------------8---------------------------
-----0-2/4------5-5-5-7------7-----9--9----------------
-0-2---------------------------------------------------
-------------------------------------------------------
-------------------------------------------------------
 G           D     G
--7-5---5-7--5--2--3----3------------------------------
------8------------------------------------------------
-------------7--2--4----4------------------------------
-------------------------------------------------------
-------------------------------------------------------
-------------------------------------------------------



     
Добавлено: 09.08.2013
Другие материалы по этой песне:
  • Аккорды и текст

Страница создана 06.06.2012
http://primanota.ru/tom-waits/old-shoes-chords.htm
Привет, Гость.
Предлагаем пройти революционный курс по гитаре.
Подарок от PrimaNota.Ru, забирай!