PrimaNota.ru - самый крупный в мире бесплатный архив песенных текстов, аккордов, табулатур и нот


Tom Waits - Hang Me In A Bottle - таба, видео

Регистрация Запомнить меня
Войти через:  Facebook Google Twitter Vk Yandex Mail.ru

Tom Waits - Hang Me In A Bottle - таба, видео

Печатать
Просмотров: 109
Уроки эстрадного вокала в Санкт-Петербурге
		   Author/Artist: Waits, Tom
Title: Hang Me in A Bottle
Album: Alice
Transcribed by: Adam Casciaro
-3---3-------------------4---4---3---3----------------------------------------
---------1---1---4---4-------------------1--------------------------1---1---4-
-0---------------0---------------0-----------0--------------0---0-----------0-
------------------------------------------------4--3--2--1--0-----------------
---------3-------------------------------3----------------------4---3---------
-----3---------------3---4-----------3----------------------------------------

-----4---4---3---3---2-------------------------1---1---2---4---2---2---1------
-4--------------------------------------3--4---0-------4---6---4-----------4--
-------------0-----------1-----1--0------------1------------------------------
----------------------------4--------4--3--1---0-----------0------------------
---------------------3--------------------------------------------------------
-3---4-----------3------------------------------------------------------------

-1---1---2---4---2---1-------1---1------------------------------4---4---3---3-
-0-------4---6---4-------4---1---0--------------1---1---4---4-----------------
-1---------------------------1---0--------0---0---------0---------------0-----
-0-----------0---------------0---0--3--1--0-----------------------------------
---------------------------------2--------------3-----------------------------
---------------------------------3--------------------------3---4-----------3-

--------------------------------------------4---4---3---3---2-----------------
-1--------------------------1---1---4---4-------------------------------------
-----0--------------0---0-----------0---------------0-----------1-----1--0----
--------4--3--2--1--0----------------------------------------------4--------4-
-3----------------------4---3-------------------------------3-----------------
----------------------------------------3---4-----------3---------------------

---------1---1---2---4---2---2---1-------1---1---2---4---2---1-----1---1---1--
-3---4---0-------4---6---4-----------4---0-------4---6---4------4--1---0---1--
---------1-------------------------------1-------------------------1---0---1--
-3---1---0-----------0-------------------0-------------------------0---0---3--
-----------------------------------------------------------------------2---3--
-----------------------------------------------------------------------3---1--

-3---1---1---3---0---1--------------------------------------------------------
-4---1---1---4---1---0--------------------------------------------------------
-5---1---1---5---3---0--------------------------------------------------------
-5---0---3---5---2---0--------------------------------------------------------
-3---0---3---3---3---2--------------------------------------------------------
-3---0---1---3---0---3--------------------------------------------------------
     
Добавлено: 10.08.2013
Другие материалы по этой песне:
  • Аккорды и текст

Страница создана 10.08.2013
http://primanota.ru/tom-waits/hang-me-in-a-bottle-chords.htm
Привет, Гость.
Предлагаем пройти революционный курс по гитаре.
Подарок от PrimaNota.Ru, забирай!