PrimaNota.ru - самый крупный в мире бесплатный архив песенных текстов, аккордов, табулатур и нот


Tom Petty - Sins Of My Youth (feat. Heartbreakers) - аккорды и текст, видео

Регистрация Запомнить меня
Войти через:  Facebook Google Twitter Vk Yandex Mail.ru

Tom Petty - Sins Of My Youth (feat. Heartbreakers) - аккорды и текст, видео

Печатать
Просмотров: 174
Sins Of My Youth
Tom Petty
-------------------------------------------------------------------------------
           Sins of My Youth - Tom Petty and the Heart Breakers
-------------------------------------------------------------------------------
Tabbed by: Robert McMillan
E-mail: mcmillan_ra(at)hotmail.com

Tuning: Standard

Chords Used:

Bm   : x24432
F#aug: xx4332
Em   : 022000
F#   : 244322
G    : 355433
F#m  : 244222
A    : x02220
D    : xx0232



Intro
=====

   Bm            F#aug          Em              F#
e|-------------|--------------|---------0-----|---------2-----|
B|-------3-----|-------3------|-------0-------|-------2-------|
G|----4--------|----3---------|----0----------|----3----------|
D|-4-----------|-4------------|-2-------------|-4-------------|
A|-------------|--------------|---------------|---------------|
E|-------------|--------------|---------------|---------------| x 2

Verse 1 (Same as above throughout the verses)
=======

Bm                        F#aug
  You will find no wicked way in me
Em              F#
  Look me over, you will see
Bm                  F#aug
  You will find, no weary a change
Em                          F#
  I'm worn and wounded, but still the same

Chorus
======
G                  F#m
  Wooooaaaah oh oh oh
F#                    Bm     A 
  Let me tell you the truth
G            F#m
  I love you more
F#                    Bm     A  G F#
  Than the sins of my youth.

Verse 2
=======
Bm                      F#aug
  When the past gets up in your face
Em               F#
  Memories slide out of place
Bm                           F#aug
  All those things that were hidden away
Em                    F#
  Ain't so bad in the light of day

Chorus
======
G                  F#m
  Wooooaaaah oh oh oh
F#                    Bm     A 
  Let me tell you the truth
G            F#m
  I love you more
F#                    Bm     A  G F#
  Than the sins of my youth.


Solo
====

Em F# Em F#
D A G F#

Verse 3
=======

Bm                        F#aug
Say you love me wish you, liked me more
Em            F#
I'm no Angel, that's for sure
Bm                       F#aug
Said you forgave me each time I was caught, 
Em                        F#
But you still paint me as something I'm not


Chorus
======
G                  F#m
  Wooooaaaah oh oh oh
F#                    Bm     A 
  Let me tell you the truth
G            F#m
  I love you more
F#                    Bm     A
  Than the sins of my youth.

G            F#m
  I love you more
F#                    Bm     A  G F#
  Than the sins of my youth.


Outro
=====
F# Bm


Notes
===== 

Tab in the chorus follows a similar sort of pattern:

  G             F#m           F#              Bm   A (rake both)
e|-------------|-------------|---------2----|-2----0----|
B|-------3-----|-------2-----|-------2------|-3----2----|
G|----4--------|----2--------|----3---------|-4----2----|
D|-------------|-------------|--------------|-4----2----|
A|-------------|-------------|--------------|-2----0----|
E|-3-----------|-2-----------|-2------------|-----------|

  G (rake)   F#m           F#             Bm   A (rake both)
e|-3-------|-------------|---------2----|-2----0----|
B|-3-------|-------2-----|-------2------|-3----2----|
G|-4-------|----2--------|----3---------|-4----2----|
D|-5-------|-------------|--------------|-4----2----|
A|-5-------|-------------|--------------|-2----0----|
E|-3-------|-2-----------|-2------------|-----------|

  G (Rake)   F# (Strums)
e|-3-------|-2---2---2-2--|
B|-3-------|-2---2---2-2--|
G|-4-------|-3---3---2-2--|
D|-5-------|-4---4---4-4--|
A|-5-------|-4---4---4-4--|
E|-3-------|-2---2---2-2--|

If just strumming instead of picking the notes, I think it sounds better to go F#m to F#7.




Добавлено: 07.09.2015
Вам также может быть интересно:
Другие материалы по этой песне:
  • Аккорды и текст

Страница создана 07.09.2015
http://primanota.ru/tom-petty/sins-of-my-youth-chords.htm
Привет, Гость.
Предлагаем пройти революционный курс по гитаре.
Подарок от PrimaNota.Ru, забирай!