PrimaNota.ru - самый крупный в мире бесплатный архив песенных текстов, аккордов, табулатур и нот


Tom Petty - No More (feat. Heartbreakers) - аккорды и текст, видео

Регистрация Запомнить меня
Войти через:  Facebook Google Twitter Vk Yandex Mail.ru

Tom Petty - No More (feat. Heartbreakers) - аккорды и текст, видео

Печатать
Просмотров: 87
No More
Tom Petty
Song: No More
By: Tom Petty and the Heartbreakers
Album: Echo
Track: 12
Tabbed by: Mike Smith  kangabeanbag@aol.com>


This is my first attempt at doing a tab. For the most
part this is right. It matches the recorded version
found on Echo. I dont know the name of all of the chords,
but I listed the ones that I do know. You will have to
listen to the recording to figure out the strum patterns
and the melody. Enjoy!


     D    A    G    A    G    A    D

-----5----5----3----0----3----0----3----
-----7----5----3----2----0----2----2----
-----7----6----4----2----0----2----3----
-----7----7----5----2----0----2----0----
-----5----7----5----0----2----0---------
-----5----5----3---------3--------------

     ?    ?    ?    ?    E    G    A

-----7----5----7----5----0----3----5
-----7----5----7----5----0----3----5
-----7----5----7----5----1----4----6
-----9----7----9----7----2----5----7
-----9----7----9----7----2----5----7
-----7----5----7----5----0----3----5


     
Добавлено: 27.11.2013
Другие материалы по этой песне:
  • Аккорды и текст

Страница создана 14.10.2013
http://primanota.ru/tom-petty/no-more-chords.htm
Привет, Гость.
Предлагаем пройти революционный курс по гитаре.
Подарок от PrimaNota.Ru, забирай!