PrimaNota.ru - самый крупный в мире бесплатный архив песенных текстов, аккордов, табулатур и нот


Tom Jones - Are You Gonna Go My Way - таба, видео

Регистрация Запомнить меня
Войти через:  Facebook Google Twitter Vk Yandex Mail.ru

Tom Jones - Are You Gonna Go My Way - таба, видео

Печатать
Просмотров: 327
Авторы музыки: Lenny Kravitz, Craig Ross
Авторы текста: Lenny Kravitz
ARE YOU GONNA GO MY WAY written by LENNY KRAVITZ
Sang by TOM JONES & ROBBIE WILLIAMS
Of RELOAD

Riff 1:

-------------------------------------------3----|
-------------------------------------------3----|
-2-^4-^2-p0-------------2-^4-^2-p0--------------|
------------2---0-2----------------2---0-2------|
------------------------------------------------|
--------------0-------0--------------0----------|

Riff 2:

------------------------------------------------|
-10^12^10p8-------------10^12^10p8--------------|
------------9---7-9----------------9---7-9------|
------------------------------------------------|
------------------------------------------------|   
------------------------------------------------|

Chorus:
----0-------------------0--------------------|
----0-------------------0--------------------|
----7-------------------6--------------------|
----9-------------------7--------------------|
---------------------------------------------|
---------------------------------------------|
But what I really want to know is

------------------------------------------|
-9-9-7-9---------------------9-9--12-9----|
-9-9-7-9---------------------9-9--12-9----|
-9-9-7-9---------------------9-9--12-9----|
------------------------------------------|
------------------------------------------|
Are you gonna go my way

----0---------------0------------------------|
----0---------------0------------------------|
----7---------------6------------------------|
----9---------------7------------------------|
---------------------------------------------|
---------------------------------------------|
           And I got to    got to know

Enjoy!
     
Добавлено: 01.07.2013
Другие материалы по этой песне:
  • Аккорды и текст

Страница создана 01.07.2013
http://primanota.ru/tom-jones/are-you-gonna-go-my-way-chords.htm
Привет, Гость.
Предлагаем пройти революционный курс по гитаре.
Подарок от PrimaNota.Ru, забирай!