PrimaNota.ru - самый крупный в мире бесплатный архив песенных текстов, аккордов, табулатур и нот


Tom Jobim - Garota De Ipanema - таба, видео

Регистрация Запомнить меня
Войти через:  Facebook Google Twitter Vk Yandex Mail.ru

Tom Jobim - Garota De Ipanema - таба, видео

Печатать
Просмотров: 104
Tom: F

Primeira Parte:

                
 F7M                                   G7(13)
Olha que coisa mais linda mais cheia de graça
                            Gm7
É ela menina que vem e que passa
            C7(9-)                Am7(11)   Ab7(11+)    Gm7(11)   Gb7(11+)
Num doce balanço a caminho do mar


   F7M                G7(13)               Gm7      C7(9-)
E|-------------------------------------------------------------|
B|---1---1-1---1---1-1---5---5-5---5---5-5---3---3-3---2---2-2-|
G|---2---2-2---2---2-2---4---4-4---4---4-4---3---3-3---3---3-3-|
D|---2---2-2---2---2-2---3---3-3---3---3-3---3---3-3---2---2-2-|
A|---------------------------------------------------3---3-----|
E|-1---1-----1---1-----3---3-----3---3-----3---3---------------|


Passagem:

  Am7(11)  Ab7(11+)    Gm7(11)  Gb7(11+)
E|---------------------------------------|
B|-----3-------3---3-------1-------1---1-|
G|-----3-------5---5-------3-------3---3-|
D|-----5-------4---4-------3-------2---2-|
A|-0-------------------------------------|
E|---------4-----------3-------2---------|


 F7M                                G7(13)
Moça do corpo dourado do sol de lpanema
                                Gm7
O seu balançado é mais que um poema
                C7(9-)                F7M
É a coisa mais linda que eu já vi passar

Segunda Parte:

F#7M                     B7(9)
Ah, por que estou tão sozinho?
F#m7                          D7(9)
     Ah, por que tudo é tão triste?
Gm7                     Eb7(9)
     Ah, a beleza que existe
     Am7               D7(9-)
A beleza que não é só minha
 Gm7                C7(9-)
Que também passa sozinha


  F#7M               B7(9)               F#m7                D7(9)
E|-------------------------------------------------------------------------------|
B|---2---2-2---2---2---2---2-2---2---2-2---2---2-2---2---2-2---5---5-5---5---5-5-|
G|---3---3-3---3---3---2---2-2---2---2-2---2---2-2---2---2-2---5---5-5---5---5-5-|
D|---3---3-3---3---3---1---1-1---1---1-1---2---2-2---2---2-2---4---4-4---4---4-4-|
A|-------------------2---2-----2---2-------------------------5---4-----4---4-----|
E|-2---2-----2---2-----------------------2---2-----2---2-------------------------|



   Gm7                Eb7(9)               Am7      D7(9-)     Gm7      C7(9-)
E|---------------------------------------------------------------------------------|
B|---3---3-3---3---3-3---6---6-6---6---6-6---5---5-5---4---4-4---3---3-3---2---2-2-|
G|---3---3-3---3---3-3---6---6-6---6---6-6---5---5-5---5---5-5---3---3-3---3---3-3-|
D|---3---3-3---3---3-3---5---5-5---5---5-5---5---5-5---4---4-4---3---3-3---2---2-2-|
A|---------------------6---6-----6---6-----0---0-----5---5-----3---3-----3---3-----|
E|-3---3-----3---3-----------------------------------------------------------------|


F7M                                 G7(13)
Ah, se ela soubesse que quando ela passa
                               Gm7
O mundo inteirinho se enche de graça
             C7(9-)              F7M
E fica mais lindo por causa do amor

Final:

C7(9-)            F7M
   Por causa do amor
C7(9-)            F7M
   Por causa do amor.


  C7(9-)     F7M      C7(9-)     F7M
E|-----------------------------------------|
B|---2---2-2---1---1-1---2---2-2---1---1-1-|
G|---3---3-3---2---2-2---3---3-3---2---2-2-|
D|---2---2-2---2---2-2---2---2-2---2---2-2-|
A|-3---3---------------3---3---------------|
E|-----------1---1---------------1---------|
Добавлено: 22.11.2015
Вам также может быть интересно:
Другие материалы по этой песне:
  • Аккорды и текст

Страница создана 22.11.2015
http://primanota.ru/tom-jobim/garota-de-ipanema-chords.htm
Привет, Гость.
Предлагаем пройти революционный курс по гитаре.
Подарок от PrimaNota.Ru, забирай!