PrimaNota.ru - самый крупный в мире бесплатный архив песенных текстов, аккордов, табулатур и нот


Tom Cochrane - Wish You Well - таба, видео

Регистрация Запомнить меня
Войти через:  Facebook Google Twitter Vk Yandex Mail.ru

Tom Cochrane - Wish You Well - таба, видео

Печатать
Просмотров: 115
Song: I wish you well           Producer: John Webster, T. Cochrane
Artist: Tom Cochrane            Label: EMI Music Canada
Album: Ragged Ass Road
Transcribed By: Ryan Lloyd:  rdlloyd@rogers.com>


I added the accoustic intro that is found on the songs of a circling =
spirit album. 
Check the bottom of the tab.  All the chords are still the same.


Notes: For second verse play riff A with variations
This sounds right to me but if I screwed up anywhere please tell me =
where. 
Also the lyrics have all been taken out so that we dont piss anybody off

Enjoy,


        


             I wish you well


Riff A
                                    P
|-------5--------5--------5---------5-(3)--|
|------3--------3--------3---------3-------|
|*-----------------------------------------|
|*--0------0--------0--------0-------------|
|------------------------------------------|
|------------------------------------------|

                   _______________________
                                     1    |
                                          |
                                   H      |   
|------3--------3--------3--------3-(5)---|
|-----3--------3--------3--------3--------|
|----------------------------------------*|     For intro play this
|--0------0--------0---------0-----------*|     part once w/o repeat
|-----------------------------------------|
|-----------------------------------------|


 _________________
              2nd |
                  |
|-----------------|
|------2------2---|
|-----2------2-2--|
|-----------------|
|--0------0-------|
|-----------------|


Verse 1

w\riff A
I'm gonna...


E
and you might...
G
you might...

Chorus

D
and in another...
G       A
D                   
G       A
E       G


w\fill 1
D                   G      A
I wish you well
D                   G      A
I wish you well



Verse 2

D
She wants to...
A

D
then in a...
A

E
then she'll...
G
come again, oh,

Chorus


E
somebody wrote...
G
somebody made...

A                      
I cannot...
G               D
A              
E               G
E               G

Chorus


E                   G
in a film...

Outro
w\fill 1
D                  G      A
I wish you well

    * Repeat outro once and end on D chord




Fill 1

D
                    h  p
|-----------------------------------|
|-----------------------------------|
|-----2-0---------------------------|    
|----------4--2--0--2--2-(4)-(2)-0--|   
|-----------------------------------|
|-----------------------------------|

G               A
                     h  p
|-----------------------------------|
|-----------------------------------|
|-----2-0---------------------------|   
|----------4--2--0--2--2-(4)-(2)-0--|   
|-----------------------------------|
|-----------------------------------|

D      
                     h  p
|-----------------------------------|
|-----------------------------------|
|-----2-0---------------------------|    
|----------4--2--0--2--2-(4)-(2)-0--|   
|-----------------------------------|
|-----------------------------------|

G              A
                   h  p
|--------------------------------|
|--------------------------------|
|-----2-0------------------------|      
|----------4-4-2-2--2-(4)-(2)-0--|
|--------------------------------|
|--------------------------------|



Accoustic Version Intro

|--------------------------|
|-----3-3-3-3-3-3----------|
|-----2-2-2-2-2-0---0---2--|    
|--0--------------4---0-0--|   
|--------------------------|
|--------------------------|

|-----------------------|
|--3-3-3-3-3-3----------|
|--2-2-2-2-2-0---0---2--|    
|--------------4---0-0--|   
|-----------------------|
|-----------------------|

|------------------------|
|--3-3-3-3-3-------------|
|--2-2-2-2-2-------------|    
|------------0-2-2h4p2-0-|   
|------------------------|
|------------------------|

|---------------------------------|
|------3---------------2----------|
|----2-----2---2---2-------2---2--|    
|--0---------0-------2-------2----|   
|----------------0----------------|
|---------------------------------|

Let me know how you like it.
rdlloyd@rogers.com

g'day
     
Добавлено: 26.06.2013
Другие материалы по этой песне:
  • Аккорды и текст

Страница создана 26.06.2013
http://primanota.ru/tom-cochrane/wish-you-well-chords.htm
Привет, Гость.
Предлагаем пройти революционный курс по гитаре.
Подарок от PrimaNota.Ru, забирай!