PrimaNota.ru - самый крупный в мире бесплатный архив песенных текстов, аккордов, табулатур и нот


Told Slant - Sleep In - аккорды и текст, видео

Регистрация Запомнить меня
Войти через:  Facebook Google Twitter Vk Yandex Mail.ru

Told Slant - Sleep In - аккорды и текст, видео

Печатать
Просмотров: 83
Sleep In
Told Slant
-------------------------------------------------------------------------------
                             Sleep In - Told Slant
-------------------------------------------------------------------------------

Tuning: Slant

For most of the day riff:

    C                     F
e|--------0---------------------0--------------------------------------------|
B|------1---1-----------------1---1------------------------------------------|
G|------------0---------------------2----------------------------------------|
D|----2--------2------------3---------3--------------------------------------|
A|--3---------------------3--------------------------------------------------|
E|---------------------------------------------------------------------------|

Never seemed so Riff:
e|--------0-------------0----------------------------------------------------|
B|--3-1-3---3-1---3-1-3---3-1------------------------------------------------|
G|--------------2-------------0----------------------------------------------|
D|---------------------------------------------------------------------------|
A|---------------------------------------------------------------------------|
E|---------------------------------------------------------------------------|

C
home 
          F
I call it linoleum floors 
                         C
a rotting wood porch and kids 
           F
singing to 80s pop songs 
                          C
I sleep in my clothes and dream 
       F
pretty terrible things 
                        C
I wish I could dream of you 
            F
but it gets harder each night 
                        C
I barter your light for lust

C          F          C           F
Ahhhhhhhhhhhhhhhhhhhhhhhhhhhhhhhhhhhh

C
sleep 
                F
for most of the day if I can 
                      C
I'd rather not go and dance 
               F
because you're always too close 
                      C
you step on my toes I can't 
           F
think of a way to say no 
                              C
or think of thinking of those ways 
            F
why would I want to get up 
                          C
I'd probably fuck up some more 

C          F          C           F
Ahhhhhhhhhhhhhhhhhhhhhhhhhhhhhhhhhhhh

C
home never seemed so sad 
F
kids never seemed so sad 
C
my dreams never seemed so sad 
F
you never seemed so sad 

C
sleep never felt so good 
     F
your dance never seemed so sad 
  C
I can't but I wish I could 
     F
some days 

I am so fucked up
Добавлено: 06.12.2015
Другие материалы по этой песне:
  • Аккорды и текст

Страница создана 06.12.2015
http://primanota.ru/told-slant/sleep-in-chords.htm
Привет, Гость.
Предлагаем пройти революционный курс по гитаре.
Подарок от PrimaNota.Ru, забирай!