PrimaNota.ru - самый крупный в мире бесплатный архив песенных текстов, аккордов, табулатур и нот


Tokyo Jihen - Toumei Ningen - аккорды и текст, видео

Регистрация Запомнить меня
Войти через:  Facebook Google Twitter Vk Yandex Mail.ru

Tokyo Jihen - Toumei Ningen - аккорды и текст, видео

Печатать
Просмотров: 130
Toumei Ningen
Tokyo Jihen
Artist: Tokyo Jihen/Tokyo incidents
Title: Toumei Ningen/The Invisible Man
Album: Adult
Year: 2006

Tuning: E
No Capo

Tokyo Jihen - Toumei Ningen

Intro

G|--------------------------|
D|-4--2--0--2-4--4-2-2-0--2-|
A|-5--2--0--2-5--5-2-2-0--2-| 
E|--------------------------| x4

e|---------------------2---------------------|
B|---------------------3---------------------|
G|--2---2-4---55--4-2--2---------------------|
D|--0---0-0---00--0-0--0---------------------|
A|-------------------------------------------|
E|-------------------------------------------| x3

e|-------------------------------------------|
B|--------------------------5*---5*---5*-----|
G|--------------------------5*---5*---5*--14-|
D|-----------4---4----------5*---5*---5*-----|
A|-5---5-7-5-------5-------------------------|
E|-------------------5----3----3----3----3---| 

or

e|-----------------------------------------5-|
B|--------------------------5*---5*---5*-----|
G|--------------------------5*---5*---5*-----|
D|-----------4---4----------5*---5*---5*-----|
A|-5---5-7-5-------5-------------------------|
E|-------------------5----3----3----3----3---| 

e|-------------------------------------------|
B|--------------------------5*---5*---5*-----|
G|--------------------------5*---5*---5*-----|
D|-----------4---4----------5*---5*---5*-----|
A|-5---5-7-5-------5-----------------------0-|
E|-------------------5----3----3----3----3---|

D         D/F#         G        
boku wa toumei ningen sa
A
kitto sakete shimau
D     D/F#       G     A
onaji hito ni wa wakaru

D       D/F#         G
uwasa ga hashiru doori wa
A
iki wo suikome
D      D/F#       G          A
tometa mama de watatte yukeru

G                E               
Himitsu mo tanoshii keredo
A              F#
sugu nozarashi ni naru yo
Bm       A       G
sore wo warawanaide

G                 E
Suki na hito ya mono nara
A             F#
arisugiru hodo aru n'da
Bm    A       G
azayaka na iroiro

G         D
anata ga warattari
G
tondari
D/F#  
ookiku
C        A
odoroita toki

G           D/F#  
sukitooru kimochi de
E        A
chanto kotaetai no sa

D                    
mainichi
G
somaru
D/F#
sora no
C     A
mijikai kisetsu

G          D/F#              
massugu ni aoidara
E        
yuuyami mo
A             D  
osoroshikunai yo

D        D/F#        G                
boku wa toumei ningen sa
A
motto sakete itai
D         D/F#         G             A
hontou wa sou negatte iru dake

D        D/F#        G                
nanika wo warui to iu no wa
A
totemo muzukashii
D         D/F#         G             A
boku ni wa kantan ja nai koto da yo

G                 E
itotsu hitotsu kono te de
A       F#
furete tashikametai n' da
Bm     A        G
azayaka na iroiro

G        D
anata ga okottari
G
naitari
D/F#
koe sura u
C     A
shinatta toki

G           D/F#  
sukitooru kimochi wo
E             A
wakete agetai no sa
D                
mainichi
G
somaru
D/F#
sora no
 C       A
mijikai kisetsu

G               D/F#  
te wo tataite kazoetara
E              A            
mou jiki ni atarashiku naru yo

G               D                    
hazukashiku nattari
G
yandari
D/F#
saitari
C         G D/F#
karetari shitara
E         A
nigorisou ni natta n' da

D                                
kon'ya wa
G
kureru
D/F#
sora no
C     A
toutoi moyou wo
D/F#
massugu ni aoide iru
E          A                  Bm
ashita mo shiawase ni omoeru sa

A           E          G    C
mata anata ni aeru no wo
F             A
tanoshimi ni matte
      D
sayounara
Добавлено: 08.01.2014
Другие материалы по этой песне:
  • Аккорды и текст

Страница создана 29.06.2012
http://primanota.ru/tokyo-jihen/toumei-ningen-chords.htm
Привет, Гость.
Предлагаем пройти революционный курс по гитаре.
Подарок от PrimaNota.Ru, забирай!