PrimaNota.ru - самый крупный в мире бесплатный архив песенных текстов, аккордов, табулатур и нот


Tokyo Jihen - Sounan - текст песни, бас-таба, видео

Регистрация Запомнить меня
Войти через:  Facebook Google Twitter Vk Yandex Mail.ru

Tokyo Jihen - Sounan - текст песни, бас-таба, видео

Печатать
Просмотров: 127
-------------------------------------------------------------------------------
			                SOUNAN - Tokyo Jihen
-------------------------------------------------------------------------------

Tokyo Jihen HP: http://www.emimusic.jp/tokyojihen/

Tabbed By : Leo

e-mail: http://www.youtube.com/user/memorieslive

The lyrics may not be accurate, copied them from some random site. Anyhow, they're good 
have as a reference.
A very important point with this song is to get the slides right, because it is the main 
for it.

This song is a lot fun to play, Good Luck!  Please consider that this is my first time 
a tab. :)

Tuning: EADG


INTRO

G|--------------0--------------|
D|--------1---1---------------0|
A|--3-3-3---3-----------1---1--|
E|----------------3-3-3---3----|      x4 Times


VERSE 1

G|----------------------------------|
D|-------1-1----------------1-1-----|
A|--3\0----------------3\0----------|
E|-----------3\0---3-3----------3\0-|

Kono hana ga saite kareru made kitto

G|------------------------------------3/6-|
D|----------------------------------------|
A|--10-10-8\0---8-8-6\0---6-6-5\0---4-----|
E|----------------------------------------|
(don't slide it all the way down to 0, release your hand while sliding down! ^^)

Futari ni wa norumono mo miataranai

G|----------------------------------|
D|-------1-1----------------1-1-----|
A|--3\0----------------3\0----------|
E|-----------3\0---3-3----------3\0-|

Sekisai no gendo o ayamaranai you ni

G|-------------------------------------|
D|-------------------------------------|
A|--10-10-8\0---8-8-6\0---6-6-5\0------|
E|----------------------------------3--|

Nozomu mama hanasu kyori Kobomu no o yuruse yo

G|---------------------------|
D|----4-5------4-5-----------|
A|--3--------3---------------|
E|--------3--------3--3/12\--|

Tsui ni kowashite chaku chiten ninshiki konnan
"Ochite iku."


CHORUS

G|------------------------------------------------------------5/12--12---------------|
D|--------------8-------------------2-3---3----------------------------13-3-4-5------|
A|----6-------8---8---3---3---3---3-----3---3-2-1-1-1-3-3-5-5-------------------5----|
E|--4---4-4-6-------6---3---3---3-------------------------------------------------3--|

Kou yatte ima koko de - Kaika suru kizutsuke ai no kaiwa ga -  Yokunai tane o fuyashite 
sodatte iku

G|----------------------------------------------- -------------5/12--12-----------------|
D|--------------8--------------------2-3---3----------------------------13----3-4-5-----|
A|----6-------8---8----3---3---3---3-----3---3-2-1-1-1-3-3-5-5----------------------5\--|
E|--4---4-4-6-------6----3---3---3------------------------------------------------------|

Aa mou dou ni demo nari sou na jitai - Kotae ni kizuite mo mada otagai - Itoshii to 
iru


BRIDGE

G|--------------0----------------|
D|--------1---1---------------0--|
A|--3-3-3---3-----------1---1----|
E|----------------3-3-3---3------|   x2 Times

hijousen "Kyuujo shite."


VERSE 2

G|-----------------------------------|
D|-------1-1----------------1-1------|
A|--3\0----------------3\0-----------|
E|-----------3\0---3-3----------3\0--|

Fuyu ga kirai to iu hieta te wa Tou ni

G|--12-12-10\-------8--8-7\---|
D|----------------------------|
A|----------8--8-6\-----------|
E|-------------------------3--|

erabarete todoku kyori - Tsukamu no wo uruse yo

G|------------------------|
D|----4-5------4-5--------|
A|--3--------3------------|
E|--------3--------3--8\--|

issou kowashi te minamo ga haruka zujou e “oboreru.


CHORUS

G|----------------------------------------------- -------------5/12--12----------------|
D|--------------8--------------------2-3---3----------------------------13--3-4-5------|
A|----6-------8---8----3---3---3---3-----3---3-2-1-1-1-3-3-5-5--------------------5----|
E|--4---4-4-6-------6----3---3---3--------------------------------------------------3--|

kou yatte ima furimuki mo sezu itsukushimiau koto jitai - abunai to wa wakatteite mo damatteiru

G|----------------------------------------------- -------------5/12--12----------------|
D|--------------8--------------------2-3---3----------------------------13--3-4-5------|
A|----6-------8---8----3---3---3---3-----3---3-2-1-1-1-3-3-5-5--------------------5----|
E|--4---4-4-6-------6----3---3---3--------------------------------------------------3--|

aa mou dou ni ka naru kamoshirenai - kotae ni kidzuite mo mada otagai hohoemiau mahiru 
neiru!

G|--------------------------------------------------------5/12--12--------------|
D|--------------8------------2-2-3---3-----------------------------13--3-4-5-5--|
A|----6-------8---8---3\-----------3---3--2-1-1-1-3-3-5-5-------------------5---|
E|--4---4-4-6-------6-----------------------------------------------------------|

datte shinjitsu nado ni kyoumi wa nai... gehin na shibai de teikoku hakanai omoi wo 
ni kakushite oite

G|----------------------------------------------------------------------------------------|
D|--------------8-------------------2-3---3-----------------------------------5\----------|
A|----6-------8---8---3---3---3---3-----3---3-2-1-1-1-3-3-5-5-6-6-6-6-6-6-6-6-------------|
E|--4---4-4-6-------6---3---3---3--------------------------------------------------3/12\--|

aa mou dou ni ka naru tochuu no jibun ga utomashii sayounara otagai nita kotae no hazu - 
n da.”


OUTRO

G|-------------------------------3-5--------------------------------5/12--12---------------|
D|---------------8-------------5-----5-----------3---------------------------13-3-4-5------|
A|-----6-------8---8---3---3-----------3-------3---3-2-1-1-1-3-3-5-5------------------5----|
E|---4---4-4-6-------6---3---3-----------3-0-1------------------------------------------3--|


G|--------------------------3-4-5-6-7-9--------------------------------5/12--12----------------|
D|------6---------8-------5------------------------3----------------------------13\-3-4-5------|
A|----6---6-----8---8---3---------------10-------3---3---1-1-1-3-3-5-5--------------------5----|
E|--4-------4-6-------6--------------------8\-1--------1------------------------------------3--|


Two bars left, from here Seiji plays different versions of the outro bassline, I never 
them exactly
like he does, therefore, I did not tab them. But you can try your own versions, or just 
the same as before.


| /  slide up
| \  slide down
| h  hammer-on
| p  pull-off
| ~  vibrato
| +  harmonic
| x  Mute note
==================================================================================
Добавлено: 08.03.2012
Другие материалы по этой песне:

Страница создана 08.03.2012
http://primanota.ru/tokyo-jihen/sounan-chords.htm
Привет, Гость.
Предлагаем пройти революционный курс по гитаре.
Подарок от PrimaNota.Ru, забирай!