PrimaNota.ru - самый крупный в мире бесплатный архив песенных текстов, аккордов, табулатур и нот


Tokio Hotel - Forgotten Children - текст песни, таба, видео

Регистрация Запомнить меня
Войти через:  Facebook Google Twitter Vk Yandex Mail.ru

Tokio Hotel - Forgotten Children - текст песни, таба, видео

Печатать
Просмотров: 223
Band: Tokio Hotel
Song: Forgotten Children/Vergessene Kinder
Album: Room 483
Tuning: Standard (ebgdae)
Tabbed by: JD88

INTRO:

E|----------------------------------------|
B|----------------------------------------|
G|---7----7----7----7---7----7----7----7--|
D|-5---5-----5---5------------------------|
A|--------------------6---6-----6---5-----|
E|----------------------------------------|

VERSE:

E|----------------------------------------|
B|----------------------------------------|
G|---7----7----7----7----7----7----7----7-|
D|-5---5-----5---5------------------------|
A|---------------------6---6-----6---5----|  x3
E|----------------------------------------|

E|----------------------------------------------|
B|----------------------------------------------|
G|---7----7----7----7----7----7----7----6-------|
D|-5---5-----5---5------------------------------|
A|---------------------6---6-----8---8----------|
E|----------------------------------------------|

PRE-CHORUS:

E|-----------|----------|----------|----------|
B|-----------|----------|----------|----------|
G|-----0-----|----------|-----0----|------3-3-|
D|---------1-|-----5----|-1------1-|----3-----|
A|-3---------|--------6-|----------|-1--------|  x4
E|-----------|-4--------|----------|----------|

CHORUS:

E|-----------|----------|----------|----------|
B|-----------|----------|----------|----------|
G|-----0-----|----------|-----0----|------3-3-|
D|---------1-|-----5----|-1------1-|----3-----|
A|-3---------|--------6-|----------|-1--------|  x2
E|-----------|-4--------|----------|----------|

PRE-VERSE:

E|----------------------------------------|
B|----------------------------------------|
G|---7----7----7----7----7----7----7----7-|
D|-5---5-----5---5------------------------|
A|---------------------6---6-----6---5----|
E|----------------------------------------|

VERSE:

E|----------------------------------------|
B|----------------------------------------|
G|---7----7----7----7----7----7----7----7-|
D|-5---5-----5---5------------------------|
A|---------------------6---6-----6---5----|  x2
E|----------------------------------------|

E|----------------------------------------------|
B|----------------------------------------------|
G|---7----7----7----7----7----7----7----6-------|
D|-5---5-----5---5------------------------------|
A|---------------------6---6-----8---8----------|
E|----------------------------------------------|

PRE-CHORUS:

E|-----------|----------|----------|----------|
B|-----------|----------|----------|----------|
G|-----0-----|----------|-----0----|------3-3-|
D|---------1-|-----5----|-1------1-|----3-----|
A|-3---------|--------6-|----------|-1--------|  x4
E|-----------|-4--------|----------|----------|

CHORUS:

E|-----------------|-----------------|-----------------|-----------------|
B|-----------------|-----------------|-----------------|-----------------|
G|-5-5-5-5-5-5-5-5-|-----------------|-8-8-8-8-8-8-8-8-|-----------------|
D|-5-5-5-5-5-5-5-5-|-6-6-6-6-6-6-6-6-|-8-8-8-8-8-8-8-8-|-8-8-8-8-8-8-8-8-|
A|-3-3-3-3-3-3-3-3-|-6-6-6-6-6-6-6-6-|-6-6-6-6-6-6-6-6-|-8-8-8-8-8-8-8-8-|x2
E|-----------------|-4-4-4-4-4-4-4-4-|-----------------|-6-6-6-6-6-6-6-6-|

INTERLUDE:

E|--------------|--------------|--------------|-------------|
B|--------------|--------------|--------------|-------------|
G|--------------|--------------|--------------|-------------|
D|-5-5-5-5-5-5--|-5-5-5-5-5-5--|-5-5-5-5-5-5--|-5-5-5-5-5-5-|
A|-5-5-5-5-5-5--|-5-5-5-5-5-5--|-5-5-5-5-5-5--|-5-5-5-5-5-5-|
E|-3-3-3-3-3-3--|-3-3-3-3-3-3--|-3-3-3-3-3-3--|-3-3-3-3-3-3-|

   (it shouldn't really be that way)
E|--------|--------|--------|--------|
B|--------|--------|--------|--------|
G|--------|--------|--------|--------|
D|--------|--------|--------|--------|
A|--------|--------|--------|--------|
E|--------|--------|--------|--------|

   (it shouldn't really be that way)
E|-3-------|-6-------|-6-------|-1-------|
B|-3-------|-8-------|-6-------|-1-------|
G|-0-------|-8-------|-7-------|-2-------|
D|-0-------|-8-------|-8-------|-3-------|
A|-2-------|-6-------|-8-------|-3-------|
E|-3-------|---------|-6-------|-1-------|

CHORUS:

E|-----------------|-----------------|-----------------|-----------------|
B|-----------------|-----------------|-----------------|-----------------|
G|-5-5-5-5-5-5-5-5-|-----------------|-8-8-8-8-8-8-8-8-|-----------------|
D|-5-5-5-5-5-5-5-5-|-6-6-6-6-6-6-6-6-|-8-8-8-8-8-8-8-8-|-8-8-8-8-8-8-8-8-|
A|-3-3-3-3-3-3-3-3-|-6-6-6-6-6-6-6-6-|-6-6-6-6-6-6-6-6-|-8-8-8-8-8-8-8-8-|x4
E|-----------------|-4-4-4-4-4-4-4-4-|-----------------|-6-6-6-6-6-6-6-6-|

ENDING:

E|--------------|--------------|---------------|--------------|
B|--------------|--------------|---------------|--------------|
G|--------------|--------------|-8-8-8-7--7-3--|--------------|
D|-5-5-5-5-5-5--|-5-5-5-5-5-5--|---------------|-5-5-5-5-5-5--|
A|-5-5-5-5-5-5--|-5-5-5-5-5-5--|-6-6-6-5--5-1--|-5-5-5-5-5-5--|
E|-3-3-3-3-3-3--|-3-3-3-3-3-3--|---------------|-3-3-3-3-3-3--|
Добавлено: 01.04.2012
Другие материалы по этой песне:

Страница создана 01.04.2012
http://primanota.ru/tokio-hotel/forgotten-children-chords.htm
Привет, Гость.
Предлагаем пройти революционный курс по гитаре.
Подарок от PrimaNota.Ru, забирай!