PrimaNota.ru - самый крупный в мире бесплатный архив песенных текстов, аккордов, табулатур и нот


Toh Kay - Watch It Crash - таба, видео

Регистрация Запомнить меня
Войти через:  Facebook Google Twitter Vk Yandex Mail.ru

Toh Kay - Watch It Crash - таба, видео

Печатать
Просмотров: 98
Авторы музыки: Tomas Kalnoky
Авторы текста: Tomas Kalnoky
-------------------------------------------------------------------------------
                             WATCH IT CRASH - Toh Kay
-------------------------------------------------------------------------------
Tabbed by: John Gabaldon
E-mail: jvgcool@gmail.com

Tuning: Standard with capo on 2nd

Intro:
    B7    C                       B7                        Em
e|--2--|--0-------3p0--------0--|-----2-----2--0h2--------|----------0-------------|
B|--0--|-------1-------1--------|----------------------0--|-------0-------0-----0--|
G|--2--|------------------0-----|--------2----------2-----|-------0----------0-----|
D|--1--|------------------------|-------------------------|-------2----------------|
A|--2--|--3---------------------|--2----------------------|-------2----------------|
E|-----|------------------------|-------------------------|--0----0----------------|


                              C                         B7
e|--------------------------|-----------3p0--------0--|-----2-----2--0h2--------|
B|-----0-----0-----0-----0--|-----1----------1--------|----------------------0--|
G|--------------------------|--------0----------0-----|--------2----------2-----|
D|--------------------------|-------------------------|-------------------------|
A|--------------------2-----|--3----------------------|--2----------------------|
E|--0-----2-----3-----------|-------------------------|-------------------------|


    Em                                                 C
e|----------0-------------|--------------------------|----------3h0--------0--|
B|-------0-------0-----0--|-----0-----0-----0-----0--|-------1-------1--------|
G|-------0----------0-----|--------------------------|-------0----------0-----|
D|-------2----------------|--2-----0-----------------|-------2----------------|
A|-------2----------------|--------------3-----2-----|--3----3----------------|
E|--0----0----------------|--------------------------|------------------------|


    B7                       G                        Em
e|----------2-------------|--3-------------3--------|----------0-------------|
B|-------0-------0-----0--|-------0-----------0-----|-------0-------0-----0--|
G|-------2----------2-----|----------0-----------0--|-------0----------0-----|
D|-------1----------------|-------------------------|-------2----------------|
A|--2----2----------------|-------------------------|-------2----------------|
E|------------------------|--3----------2-----------|--0----0----------------|


    C                       B7                          Em
e|--0-------3h0--------0--|---------------------------|----------------|
B|-------1-------1--------|---------0-----------0-----|---------0------|
G|------------------0-----|---------------------------|---------0------|
D|------------------------|---------------------------|---------2------|
A|--3---------------------|--2-----------0------------|---------2------|
E|------------------------|------------------------3--|--0------0------|


    Am                      C                        B7
e|-----------------------|----------3p0-----------|--2--|
B|----------0h1p0-----0--|---------------1--------|--0--|
G|-----------------2-----|------------------0-----|--2--|
D|-------2---------------|-------2-------------2--|--1--|
A|--0--------------------|--3---------------------|--2--|
E|-----------------------|------------------------|-----|



Em           C                 D                G
Last night I woke alone with a whisper in my ear
Em        C          D                 G
Recanting all my aspirations and my fears
Em            C               D               G
And when the sun came up that voice had disappeared
Em           C               B7
But it would linger on for years

            C          B7              Em
It said "We can't just blame it on our mothers
       C              B7              Em
Claim everything they did was always wrong"
          C                  B7            G               Em
And there ain't not turning back when our train is off its track
            C              B7              Em             D
And there's nothing we can do but watch it crash
           C                 B7            G                Em
And there ain't no right and wrong when we know it won't be long
            C              B7              Em
And there's nothing we can do but watch it crash

Em        C      D     G
So mercy, mercy, mercy me
Em              C          D              G
Praying for the death of a man I'll never meet
Em                   C                      D                 
 G
Though everyone will know the truth they'll still just make believe
Em     C   B7
Mercy mercy me

Em              C          D              G
That's all they came for, that's all they took
Em            C            D                 G
That's all we had to offer, only dirty looks
Em             C            D               G
And when they realized we'd given all we could,
Em               C            B7
that's when they finally understood

        C          B7              Em
That We can't just blame it on our mothers
       C              B7              Em
Claim everything they did was always wrong
          C                  B7            G               Em
And there ain't not turning back when our train is off its track
            C              B7              Em             D
And there's nothing we can do but watch it crash
           C                 B7            G                Em
And there ain't no right and wrong when we know it won't be long
            C              B7              Em
And there's nothing we can do but watch it crash

Em    C     D     G
Mercy mercy mercy me
Em             C           D                  G
Haunted by the memories of things we'll never see
Em             C                     D            G
Guilty for the statements that we'll never get to speak
Em    C     B7
Mercy mercy me

   C          B7              Em
We can't just blame it on our mothers
       C              B7              Em
Claim everything they did was always wrong
          C                  B7            G               Em
And there ain't not turning back when our train is off its track
            C              B7              Em             D
And there's nothing we can do but watch it crash
           C                 B7            G                Em
And there ain't no right and wrong when we know it won't be long
            C              B7              Em
And there's nothing we can do but watch it crash
         Am                 C              B7
Watch it crash. And there's nothing we can do but watch it... Crash



Outro is Almost identical to the Intro.

The very last chord is some variation of an Em chord, I haven't figured out exactly what 
it is though.
Добавлено: 09.10.2013
Другие материалы по этой песне:
  • Аккорды и текст

Страница создана 09.10.2013
http://primanota.ru/toh-kay/watch-it-crash-chords.htm
Привет, Гость.
Предлагаем пройти революционный курс по гитаре.
Подарок от PrimaNota.Ru, забирай!