PrimaNota.ru - самый крупный в мире бесплатный архив песенных текстов, аккордов, табулатур и нот


Together Pangea - No Way Out - аккорды и текст, видео

Регистрация Запомнить меня
Войти через:  Facebook Google Twitter Vk Yandex Mail.ru

Together Pangea - No Way Out - аккорды и текст, видео

Печатать
Просмотров: 158
No Way Out
Together Pangea
This is my first time tabbing out a song, 

*This part is played as the intro and as the verse
  E               G
e|0---------------3-|
B|0---------------0-|
G|1---------------0-|
D|2---2-0---------0-|
A|2-0-----2-0-----2-|
E|0-----------0-3-3-| 

VERSE

E                    G         
I know what you are thinking.
E                    G
I know what you have done.
E                    G
Even if you haven't done it,
E                    G
I know I'm not the only one.


CHORUS

Am             E
There's no way out.
Am             E     
There's no way out.
Am             E     
There's no way out.
D              E    
There's no way out.


BRIDGE

B  G Bb x2
                  
B           G Bb     
Every       time   
B           G Bb   
I try to    sleep,
B           G Bb               
I feel this need,
B           G Bb             
And I feel  weak,
B           C                 
And I feel  weak.
     
 
VERSE

CHORUS
    
        
SOLO

e|-------------------------------------------|
B|---3-5-3h5p3--3h5p3--3h5p3--3h5p3--3-------|
G|2h4---------4------4------4------4---4-22/4|
D|-------------------------------------------|
A|-------------------------------------------|
E|-------------------------------------------|

e|-------------------------------------------|
B|---3-5-3h5p3--3h5p3--3h5p3--3h5p3--3-------|
G|2h4---------4------4------4------4---4-2-0-|
D|-------------------------------------------|
A|-------------------------------------------|
E|-------------------------------------------|

e|-------------------------------------------------------|
B|-------------------------------------------------------|
G|----0-2-0h2p0--0h2p0--0h2p0--0h2p0--0-22/4---4-2-0-----|
D|-0h2---------2------2------2------2----------------2-0-|
A|-------------------------------------------------------|
E|-------------------------------------------------------|
Добавлено: 15.10.2015
Вам также может быть интересно:
Другие материалы по этой песне:
  • Аккорды и текст

Страница создана 15.10.2015
http://primanota.ru/together-pangea/no-way-out-chords.htm
Привет, Гость.
Предлагаем пройти революционный курс по гитаре.
Подарок от PrimaNota.Ru, забирай!