PrimaNota.ru - самый крупный в мире бесплатный архив песенных текстов, аккордов, табулатур и нот


Together Pangea - Looked In Too - таба, видео

Регистрация Запомнить меня
Войти через:  Facebook Google Twitter Vk Yandex Mail.ru

Together Pangea - Looked In Too - таба, видео

Печатать
Просмотров: 118
Artist: Together Pangea
Album: The Phage
Song: Looked in Too
Tuning: Standard


Main Riff                              
                                       D
e|-----------------------|         e|--X--|
B|-----------------------|         B|--7--|
G|-----------------------|         G|--7--|
D|-----------------------| (X20)   D|--7--|
A|--2---0-2-0---------0--|         A|--X--|
E|------------2---0-2----|         E|--X--|


Chorus(Chords)
 
    A      D      F# 
e|--X------X------2----|
B|--2------7------2----|
G|--2------7------3----|
D|--2------7------4----| (X4)
A|--X------X------4----|
E|--X------X------2----|


Main Riff                               
                                       D
e|-----------------------|         e|--X--|
B|-----------------------|         B|--7--|
G|-----------------------|         G|--7--|
D|-----------------------| (X12)   D|--7--|
A|--2---0-2-0---------0--|         A|--X--|
E|------------2---0-2----|         E|--X--|


Chorus (Chords)
 
    A      D      F#
e|--X------X------2----|
B|--2------7------2----|
G|--2------7------3----|
D|--2------7------4----| (X4)
A|--X------X------4----|
E|--X------X------2----|


Solo:


.Guitar 1 (solo):

Solo 1
e|---------------------------------------------------------------------------------------------|
B|---12-----10--------------------12-----10----------------------------------------------------|
G|-------11-----9--9h11~--9h11~-------11-----9--9h11~--11~--11-11-9h11-11-11-9h11-11-----------|
D|---------------------------------------------------------------------------------------------|
A|---------------------------------------------------------------------------------------------|
E|---------------------------------------------------------------------------------------------|

e|---9------9----------------------------------------------------------------------------------|
B|---12b14----14r12--10-----10-----------------------------------------------------------------|
G|----------------------11-----11--9--9h11--11~--11-11-9h11-11-11-9h11-11----12-----10---------|
D|-------------------------------------------------------------------------------11-----9--11--|
A|---------------------------------------------------------------------------------------------|
E|---------------------------------------------------------------------------------------------|

Solo 2 (starts at 2:41 during the final chorus)

e|----------------------------------9--------12------------------------------------------------|
B|---2----------7----------10-------12b14~~--15b17~~-------------------------------------------|
G|---4b6~~b7~~--9b11~~~----12b14~~-------------------------------------------------------------|
D|---------------------------------------------------------------------------------------------|
A|---------------------------------------------------------------------------------------------|
E|---------------------------------------------------------------------------------------------|


.Guitar 2:

Riff (play during solo 1)

e|--------0---0----------------------------------------------------|
B|--2---2---2---0-2------------------------------------------------|
G|-----------------------------------------------------------------|
D|-----------------------------------------------------------------|
A|-----------------------------------------------------------------|
E|-----------------------------------------------------------------|

Final Chorus (Guitar 2)
 
    A      D      F#
e|--X------X------2----|
B|--2------7------2----|
G|--2------7------3----|
D|--2------7------4----| (x4)
A|--X------X------4----|
E|--X------X------2----|
Добавлено: 22.06.2016
Другие материалы по этой песне:
  • Аккорды и текст

Страница создана 22.06.2016
http://primanota.ru/together-pangea/looked-in-too-chords.htm
Привет, Гость.
Предлагаем пройти революционный курс по гитаре.
Подарок от PrimaNota.Ru, забирай!