PrimaNota.ru - самый крупный в мире бесплатный архив песенных текстов, аккордов, табулатур и нот


Toe - Long Tomorrow - таба, видео

Регистрация Запомнить меня
Войти через:  Facebook Google Twitter Vk Yandex Mail.ru

Toe - Long Tomorrow - таба, видео

Печатать
Просмотров: 90
-------------------------------------------------------------------------------
                             Long Tomorrow Intro - Toe
-------------------------------------------------------------------------------
Tabbed by:Moniitor
E-mail:R3tardojosh@gmail.com

Tuning: Standard Capo 2nd fret
Finger-picked:
This is the intro to the song done on an acoustic guitar (I think its a nylon stringed)
I'll try and figure out the rest at some point, Enjoy!

Intro:
e|----------3------------2----------0--------------------------|
B|-------0-------------0-------3---------------3-----------0---|
G|----0--------------0-----------------------0------0h2--------|
D|-2---------------2-----------------------0-------------------|
A|---------------------------------------3---------------------|
E|-------------------------------------------------------------|

e|----------3------------2-----3/5------0----------------------|
B|-------0-------------0---------------3-----------------------|
G|----0--------------0----------------0------------------------|
D|-2---------------2-----------------2-------------------------|
A|-------------------------------------------+7+---------------|
E|-------------------------------------------------------------|

e|----------3------------2----------0--------------------------|
B|-------0-------------0-------3---------------3--------0------|
G|----0--------------0-----------------------0------0h2--------|
D|-2---------------2-----------------------0-------------------|
A|---------------------------------------3---------------------|
E|-------------------------------------------------------------|

e|----------3------------2-----3/5------5---------3------------|
B|-------0-------------0---------------3---------3-------------|
G|----0--------------0----------------0---------0--------------|
D|-2---------------2-----------------2---------2---------------|
A|-------------------------------------------------------------|
E|-------------------------------------------------------------|



************************************

| /   slide up
| \   slide down
| h   hammer-on
| p   pull-off
| ~   vibrato
| +   harmonic
| x   Mute note
| b   Bend
| pb  Pre-bend
| br  Bend release
| pbr Pre-bend release
| brb Bend release bend

************************************
Добавлено: 02.08.2015
Вам также может быть интересно:
Другие материалы по этой песне:
  • Аккорды и текст

Страница создана 02.08.2015
http://primanota.ru/toe/long-tomorrow-chords.htm
Привет, Гость.
Предлагаем пройти революционный курс по гитаре.
Подарок от PrimaNota.Ru, забирай!