PrimaNota.ru - самый крупный в мире бесплатный архив песенных текстов, аккордов, табулатур и нот


Toe - I Dance Alone - бас-таба, видео

Регистрация Запомнить меня
Войти через:  Facebook Google Twitter Vk Yandex Mail.ru

Toe - I Dance Alone - бас-таба, видео

Печатать
Просмотров: 117
Title: I Dance Alone
Artist: toe
Source: audio ripped from toe's RGBDVD

Tabbed by: Neon (http://www.youtube.com/user/neonxmira, neonfreon@mail2heaven.com)

Tuning: Standard

hi! it's my first tab so please go easy on me haha. since i don't know if i should 
call the parts on an instrumental as verses, 

chorus, etc. heck i don't even know which is which haha, i just split parts of the 
songs into sections here on my tab. :P please 

feel free to let me know if there's any errors on this tab or other stuff i need 
to know/improve with tabbing. thanks and enjoy 

playing! ^^


| /  slide up
| \  slide down
| h  hammer-on
| p  pull-off


4/4 timesig
INTRO
|---------------------|---------------------|---------------------|---------------------|
|---------------------|---------------------|---------------------|---------------------|
|---------------------|---------------------|---------------------|---------------------|
|-3-------------------|-3-------------------|-2-------------------|---------------------|


|---------------------|---------------------|---------------------|---------------------|
|---------------------|---------------------|---------------------|-----9-7-9-7---7-----|
|---------------------|---------------------|---------------------|-----------------9-9-|
|-3-------------------|-3-------------------|-2-------------------|-2/------------------|


SECTION A
|---------------------|---------------------|---------------------|---------------------|
|----2--4--4h5p4-2----|----2--4--4h5p4-2----|----2--4--4/--7------|-9----7--7-9p7-------|
|---------------------|---------------------|---------------------|----9----------9-----|
|-3-------------------|-3-------------------|-2-------------------|---------------------|


|---------------------|---------------------|---------------------|---------------------|
|----2--4--4h5p4-2----|----2--4--4h5p4-2----|----2--4--4/--7------|-9----7--7-9p7-------|
|---------------------|---------------------|---------------------|----9----------9-----|
|-3-------------------|-3-------------------|-2-------------------|---------------------|


SECTION B
|---------------------|---------------------|---------------------|---------------------|
|---------------------|-----2h4-------------|---------2--0--------|---------------------|
|---------------------|---------0-----------|-0-----0-------------|-0--2h3-3-2---2-2-0--|
|-3-------------------|---------------------|---2-----------------|---------------------|


|---------------------|---------------------|---------------------|---------------------|
|----2--4--4h5p4-2----|---------------------|-----7---7----7h9----|-9/10----9---9-------|
|---------------------|-----5--7----7-7-----|-7/9---9----9--------|------10-------10-10-|
|-3-------------------|-3-------------------|---------------------|---------------------|


|---------------------|---------------------|---------------------|---------------------|
|----2--4--4h5p4-2----|----2--4--4h5p4-2----|----2--4--4/--7------|-9----7--7-9p7-------|
|---------------------|---------------------|---------------------|----9----------9-----|
|-3-------------------|-3-------------------|-2-------------------|---------------------| 


|---------------------|---------------------|---------------------|---------------------|
|----2--4--4h5p4-2----|----2--4--4h5p4-2----|----2--4--4/--7------|-9-7-9-7---7---------|
|---------------------|---------------------|---------------------|-------------9-9-----|
|-3-------------------|-3-------------------|-2-------------------|------------------3\-| 


SECTION C
|---------------------|---------------------|---------------------|---------------------|
|---------------------|---------------------|----2--4--4/--7------|-9----7--7-9p7-------|
|---------------------|---------------------|---------------------|----9----------9-----|
|-3-------------------|---------------------|-2-------------------|---------------------| 


|---------------------|---------------------|---------------------|---------------------|
|----2--4--4h5p4-2----|----2--4--4h5p4-2----|----2--4--4/--7------|-9----7--7-9p7-------|
|---------------------|---------------------|---------------------|----9----------9-----|
|-3-------------------|-3-------------------|-2-------------------|---------------------| 


|---------------------|---------------------|---------------------|---------------------|
|----2--4--4h5p4-2----|---------------------|-----7---7----7h9----|-9/10----9---9-------|
|---------------------|-----5--7----7-7-----|-7/9---9----9--------|------10-------10-10-|
|-3-------------------|-3-------------------|---------------------|---------------------|


|---------------------|---------------------|---------------------|---------------------|
|----2--4--4h5p4-2----|----2--4--4h5p4-2----|----2--4--4/--7------|-9----7--7-9p7-------|
|---------------------|---------------------|---------------------|----9----------9-----|
|-3-------------------|-3-------------------|-2-------------------|---------------------| 


|---------------------|---------------------|---------------------|---------------------|
|----2--4--4h5p4-2----|----2--4--4h5p4-2----|----2--4--4/--7------|-9-7-9-7---7---------|
|---------------------|---------------------|---------------------|-------------9-9-----|
|-3-------------------|-3-------------------|-2-------------------|------------------3\-| 



SECTION D (3/4 time signature)
|---------------------|---------------------|
|---------------------|---------------------|
|-2/5-----------------|-7-------------------|
|---------------------|---------------------|


|---------------------|---------------------|
|---------------------|---------------------|
|---------------------|-4-4-4-4-4-4---------|
|-7-7-7-7-7-7---------|---------------------|


|---------7-7---------|-7/9--9-9-9\---------|
|-----7-7-------------|---------------------|
|-5-5-----------------|---------------------|
|---------------------|---------------------|


|---------------------|---------------------|
|---------------------|---------------------|
|---------------------|-4-4-4-4-4-4---------|
|-7-7-7-7-7-7---------|---------------------|


|---------------------|---------------------|
|---------------------|-14-14-14-14-14\-----|
|-5-5-5-5-5/----------|---------------------|
|---------------------|---------------------|



SECTION E (quick transition to 4/4 time signature)
|---------------------|---------------------|---------------------|---------------------|
|---------------------|----2--4-------------|----2--4--4/--7------|-9----7--7-9p7-------|
|---------------------|---------------------|---------------------|----9----------9-----|
|-3-------------------|-3-------------------|-2-------------------|---------------------| 


|---------------------|---------------------|---------------------|---------------------|
|----2--4--4h5p4-2----|----2--4--4h5p4-2----|----2--4--4/--7------|-9----7--7-9p7-------|
|---------------------|---------------------|---------------------|----9----------9-----|
|-3-------------------|-3-------------------|-2-------------------|---------------------| 


|---------------------|---------------------|---------------------|---------------------|
|----2--4--4h5p4-2----|----2--4--4h5p4-2----|----2--4--4/--7------|-9----7--7-9p7-------|
|---------------------|---------------------|---------------------|----9----------9-----|
|-3-------------------|-3-------------------|-2-------------------|---------------------| 


|---------------------|---------------------|---------------------|---------------------|
|----2--4--4h5p4-2----|----2--4--4h5p4-2----|----2--4--4/--7------|-9-7-9-7---7---------|
|---------------------|---------------------|---------------------|-------------9-9-----|
|-3-------------------|-3-------------------|-2-------------------|---------------------| 


OUTRO
|---------------------|---------------------|---------------------|---------------------|
|---------------------|-----2-----2---------|----------------4-4--|-5-5-5-4-4-4---------|
|---------------------|---------------------|-------------/5------|-------------5-5-----|
|-3-3-3-3-3-3-3-3-----|-3-3-----3-----------|-3-2-2-2-2-2---------|---------------------|


|---------------------|---------------------|---------------------|---------------------|
|---------------------|-----2-----2---------|-----------------4---|-9-7-9-7--7----------|
|---------------------|---------------------|------------/5-5-----|------------9-9------|
|-3-3-3-3-3-3-3-3-----|-3-3-----3-----------|-3-2-2-2-2-----------|---------------------|


|---------------------|---------------------|---------------------|---------------------|
|---------------------|---------------------|---------------------|---------------------|
|---------------------|---------------------|---------------------|---------------------|
|-3-3-3-3-3-3-3-3-----|-3-3-3-3-3-3-3-3-----|-2-2-2-2-2-2-2-2-----|-2-2-2-2-2-2-2-2-----|


|---------------------|---------------------|---------------------|---------------------|
|---------------------|---------------------|--------------4------|-9-7-9-7--7----------|
|---------------------|---------------------|----------5-5--------|------------9-9------|
|-3-3-3-3-3-3-3-3-----|-3-3-3-3-3-3-3-3-----|-2-2-2-2/------------|---------------------|


|---------------------|---------------------|---------------------|---------------------|
|---------------------|---------------------|---------------------|---------------------|
|---------------------|---------------------|---------------------|---------------------|
|-3\------------------|---------------------|---------------------|---------------------|

:D
Добавлено: 20.06.2013
Другие материалы по этой песне:
  • Аккорды и текст

Страница создана 20.06.2013
http://primanota.ru/toe/i-dance-alone-chords.htm
Привет, Гость.
Предлагаем пройти революционный курс по гитаре.
Подарок от PrimaNota.Ru, забирай!