PrimaNota.ru - самый крупный в мире бесплатный архив песенных текстов, аккордов, табулатур и нот


Toe - All I Understand Is That I Dont Understand - таба, видео

Регистрация Запомнить меня
Войти через:  Facebook Google Twitter Vk Yandex Mail.ru

Toe - All I Understand Is That I Dont Understand - таба, видео

Печатать
Просмотров: 75
Уроки эстрадного вокала в Санкт-Петербурге
-------------------------------------------------------------------------------
  All I Understand Is That I Don't Understand (intro) - Toe
-------------------------------------------------------------------------------


Tabbed by:Moniitor
E-mail:r3ardojosh@gmail.com

Tuning: E A D G B e

----INTRO--------------------------------------------------------------------

Both guitars played with thumb and index finger in the intro

(I think the two guitars play in between one and other if that makes sense, listen to the song for timing)

Both guitars played staccato 

Guitar 1:
e|----------------|----------------|-------------------|-------------------|
B|-10--10--10--10-|-10--10--10--10-|-12---12---12---12-|-12---12---12---12-|
G|----------------|----------------|-------------------|-------------------|
D|----------------|----------------|-------------------|-------------------|
A|-8---8---8---8--|-8---8---8---8--|-10---10---10---10-|-10---10---10---10-|
E|----------------|----------------|-------------------|-------------------|
 
e|----------------|----------------|-10---10---10---10-|-10---10---10---10-|
B|-10--10--10--10-|-10--8---8---8--|-------------------|-------------------|
G|----------------|----------------|-------------------|-------------------|
D|----------------|----------------|-10---10---10---10-|-10---10---10---10-|
A|-8---8---8---8--|-8---8---8---8--|-------------------|-------------------|
E|----------------|----------------|-------------------|-------------------|

e|----------------|----------------|-------------------|-------------------|
B|-10--10--10--10-|-10--10--10--10-|-12---12---12---12-|-12---12---12---12-|
G|----------------|----------------|-------------------|-------------------|
D|----------------|----------------|-------------------|-------------------|
A|-8---8---8---8--|-8---8---8---8--|-10---10---10---10-|-10---10---10---10-|
E|----------------|----------------|-------------------|-------------------|
 
e|----------------|----------------|----------------|----------------|
B|-13--13--13--13-|-12--12--12--12-|-8---8---8---8--|-8---8---8---8--|
G|----------------|----------------|----------------|----------------|
D|----------------|----------------|----------------|----------------|
A|-12--12--12--12-|-10--10--10--10-|-8---8---8---8--|-8---8---8---8--|
E|----------------|----------------|----------------|----------------|

Guitar 2:
e|----------------|-----------------|-----------------|---------------------|
B|----------------|--5---5----------|-----------------|--------------3------|
G|-2---2---2---2--|----------5---5--|-----------------|------4---5----------|
D|-3---3---3---3--|--3---3---3---3--|--5---5---5---5--|--5------------------|
A|----------------|-----------------|--3---3---3---3--|--3------------------|
E|----------------|-----------------|-----------------|------3---3---3------|


e|----------------|--------------3--|-----------------|---------------------|
B|----------------|--5---5----------|-----------------|--------------3------|
G|-2---2---2---2--|----------5------|-----------------|------4---5----------|
D|-3---3---3---3--|--3---3---3---3--|--5---5---5---5--|--5------------------|
A|----------------|-----------------|--3---3---3---3--|--3------------------|
E|----------------|-----------------|-----------------|------3---3---3------|

e|----------------|-----------------|-----------------|---------------------|
B|----------------|--5---5----------|-----------------|--------------3------|
G|-2---2---2---2--|----------5---5--|-----------------|------4---5----------|
D|-3---3---3---3--|--3---3---3---3--|--5---5---5---5--|--5------------------|
A|----------------|-----------------|--3---3---3---3--|--3------------------|
E|----------------|-----------------|-----------------|------3---3---3------|


e|----------------|--------------3--|-----------------|---------------------|
B|----------------|--5---5----------|-----------------|--------------3------|
G|-2---2---2---2--|----------5------|-----------------|------4---5----------|
D|-3---3---3---3--|--3---3---3---3--|--5---5---5---5--|--5------------------|
A|----------------|-----------------|--3---3---3---3--|--3------------------|
E|----------------|-----------------|-----------------|------3---3---3------|

Добавлено: 02.08.2015
Вам также может быть интересно:
Другие материалы по этой песне:
  • Аккорды и текст

Страница создана 02.08.2015
http://primanota.ru/toe/all-i-understand-is-that-i-dont-understand-chords.htm
Привет, Гость.
Предлагаем пройти революционный курс по гитаре.
Подарок от PrimaNota.Ru, забирай!