PrimaNota.ru - самый крупный в мире бесплатный архив песенных текстов, аккордов, табулатур и нот


Todo O Nada - Disolvente - таба, видео

Регистрация Запомнить меня
Войти через:  Facebook Google Twitter Vk Yandex Mail.ru

Todo O Nada - Disolvente - таба, видео

Печатать
Просмотров: 91
Acordes principales
   Cadd2   D   G6/E
e-----------------------------------------------------------|
B-----------------------------------------------------------|
G---------------0-------------------------------------------|
D----0-----0----9-------------------------------------------|
A----7-----9----7-------------------------------------------|
E----8-----10-----------------------------------------------|

e---------------------------------------|
B---------------------------------------|
G----0---0---0---0----0---0---0---0-----|
D---9-9-9-9-9-9-9-9--9-9-9-9-9-9-9-9----|
A--7---7---7---7------------------------|
E-------------------8---8---8---8-------|
Voy corriendo calle abajo sin pensar a donde
las lagrimas que desprendo me estan doliendo al caer
los animales que viven por debajo de los coches
son los único colegas que me vienen hoy a ver

   Cadd2           D                      G6/E
e---------------------------------------------|
B---------------------------------------------|
G------------------------------------------0--|
D---0-0-0-0-0-0-0--0--0--0--0--0--0--0----9---|
A---7-7-7-7-7-7-7--9--9--9--9--9--9--9---7----|
E---8-8-8-8-8-8-8--10-10-10-10-10-10-10--0----|
               Cadd2  D        G6/E
y aveces no entiendo que es mejor
             Cadd2    D    G6/E
si seguir corriendo a toda prisa
        Cadd2  D        G6/E
o detenerse parao que yo
             Cadd2       D
convencido de que apunto de caerme estoy me desmayo por dentro


e-------------------------------|
B-------------------------------|
G----0---0----0----0---0---0----|
D---9-9-9-9--9-9--9-9-9-9-9-9---|
A--7---7------------------------|
E----------10---10---8---8------|

(punteo inicial)
G6/E                        Cadd2
A ver las cosas que pensé maldecir como es
                          G6/E
que nunca te atreviste a mentir no ves
                          D
maldigo que se que estas mintiendome
G6/E                          Cadd2
me quedan tantas cosas mas que sentir
                               G6/E
que me da miedo hasta ponerme a reir
                                D
no vaya a ser que luego acabe llorando


       G6/E
Siento que la vida se me va
      Cadd2
sin poderla apenas disfrutar
       G6/E
como siempre cuando quiero más
       D
se me acaba


G6/E                               Cadd2
Nunca, aveces nunca entiendo el porque
                                G6/E
de que las cosas nunca vuelvan a ser lo que
                             D
dejaban de ser lo que iban siendo
G6/E                             Cadd2
me temo tantas cosas que hay que temer
                                  G6/E
de nuevo estoy pensando que enloquecer va a ser
                              D
que estemos solo un poco más cuerdos


      G6/E
Siento que la vida se me va
      Cadd2
sin poderla apenas disfrutar
      G6/E
como quieres que no quiera más
      D
se me acaba


(punteado)
G6/E                  D                          Cadd2
Y aveces me arrepiento de que el arrepentimiento
                             D                       G6/E
me venga siempre y cuando intento dejar de pensarte
                D                 Cadd2
y ya no me entretengo como antes
                      D                Cadd2
con la misma facilidad, todo me parece igual de mal

G6/E                     Cadd2  D
Vas a hacer que saque lo peor de mi imaginación
G6/E                   Cadd2 D
nunca pensé que pudiera oler tan mal con mis adentros
G6/E         Cadd2            D
sienta mal convencer que eres tú el monstruo de este cuento
G6/E            Cadd2        D
a ver si ya me invento un final antes de que te cuente

que intento levantarme cada vez depues de darme ya una gran patada

en la boca por haber dicho que, que jamas que jamas que jamas

Cadd2    D         G6/E            D
Me echaste disolvente sobre estas notas
Cadd2     D               G6/E          D
que suerte antes las gravé y ahora colocan
Cadd2    D          G6/E        D       Cadd2   D
el duende ya no viene a verme porque al pobre lo estrangulé
G6/E               Cadd2 D              G6/E
alla en el parque, decía que era de color la vida
D              Cadd2         D
y es de suponer que al duende me lo cargué

(puente)
e------------------------------|
B------------------------------|
G------------------------------|
D--9-7-5-4-5---9-7-9-10-10-----|
A--7-7-7-7-7---7-7-7-7--7------|
E--0-0-0-0-0---0-0-0-0--0------|

G6/E               D                     Cadd2
Aveces pienso que duraría mas sin dormir
                   D
si no supiera que tengo un mundo libre dentro
G6/E                    D
me lo he inventado y es todo solo para mi
Cadd2             D
ni lo he pisado, todavía no me atrevo a hacerlo

(repetir puente)

G6/E               D                             Cadd2
no me apetece el luchar monstruos de mas de seis cabezas
                       D
pero ya me vale ir en contra de dos
G6/E                D                        Cadd2
no me presiones que con las municiones no se juega

me encanta que me deis, me encanta que me deis...
me encanta que me deis la razón
Добавлено: 02.06.2016
Другие материалы по этой песне:
  • Аккорды и текст

Страница создана 02.06.2016
http://primanota.ru/todo-o-nada/disolvente-chords.htm
Привет, Гость.
Предлагаем пройти революционный курс по гитаре.
Подарок от PrimaNota.Ru, забирай!