PrimaNota.ru - самый крупный в мире бесплатный архив песенных текстов, аккордов, табулатур и нот


Todd Terje - Svensk Sås - таба, видео

Регистрация Запомнить меня
Войти через:  Facebook Google Twitter Vk Yandex Mail.ru

Todd Terje - Svensk Sås - таба, видео

Печатать
Просмотров: 143
Авторы: Bo Norgren

Todd Terje

Svensk Sås

=============================================================================================================

Chords used (though it's your call which inversions are better, as it's keyboards and synths):

     Fm7      C      Bbm7      Dbmaj7  Abmaj7   Fm9  Fm7(b9)/C    Dmaj7/Bb (Bb9)   Bdim7   Gdim7

e |-------|---8---|---6---|  |-------|--(3)--|---3---|---2---|   |---4---|---1---|-------|-------|
b |---9---|---8---|---6---|  |---6---|---4---|---1---|---1---|   |---6---|---1---|---6---|--11---|
g |---8---|---9---|---6---|  |---5---|---5---|---1---|---1---|   |---5---|---1---|---7---|---9---|
d |--10---|--10---|---6---|  |---6---|---5---|---1---|---1---|   |---6---|---0---|---6---|--11---|
a |---8---|--10---|---8---|  |---4---|-------|---3---|---3---|   |-------|---1---|-------|--10---|
e |-------|---8---|---6---|  |-------|---4---|---1---|-------|   |---6*--|-------|---7---|-------|
                                                                *Thumb

Intro:

4 bars of vocal 'doom-tak-doo-doom' etc., then:

Verse:

    Fm7                        C                          Bbm7                       C
    
e |--------------------------|--------------------------|--------------------------|-------------------------|
b |--------------------------|--------------------------|--------------------------|-------------------------|
g |--------------------------|--------------------------|--------------------------|-------------------/6--5-|
d |3--6-------3--6-------2-3-|2--5-------2--5-------2-3-|---3----3-----3--6-3----3-|-----2--5--2--5-(2)------|
a |-----3--6--------2-3------|-----1--3--------1-3------|4----------4----------4---|3--5---------------------|
e |--------------------------|--------------------------|-----6--------------------|-------------------------|

    Fm7                        C                          Bbm7                       C

e |--------------------------|--------------------------|--------------------------|-------------------------|
b |--------------------------|--------------------------|--------------------------|-------------------------|
g |--------------------------|--------------------------|--------------------------|-------------------/6--5-|
d |3--6-------3--6-------2-3-|2--5-------2--5-------2-3-|---3----3-----3--6-3----3-|-----2--5--2--5-(2)------|
a |-----3--6--------2-3------|-----1--3--------1-3------|4----------4----------4---|3--5---------------------|
e |--------------------------|--------------------------|-----6--------------------|-------------------------|


Repeat riff in background, with this melody over:

e |--------------------------|8--8-6--6-----------------|--------4-3-4--3-1-3--1-0-|1--0---------------------|
b |6~~-------------5-6-5-6-8-|----------8---------------|--------------------------|-----1-------2-----5-----|
g |--------------------------|--------------------------|--------------------------|-------------------------|
d |--------------------------|--------------------------|--------------------------|-------------------------|
a |--------------------------|--------------------------|--------------------------|-------------------------|
e |--------------------------|--------------------------|--------------------------|-------------------------|


e |--------------------------|8--8-6--6-----------------|--------4-3-4--3-1-3--1-0-|1--0---------------------|
b |6~~-------------5-6-5-6-8-|----------8---------------|--------------------------|-----1-------2-----5-----|
g |--------------------------|--------------------------|--------------------------|-------------------------|
d |--------------------------|--------------------------|--------------------------|-------------------------|
a |--------------------------|--------------------------|--------------------------|-------------------------|
e |--------------------------|--------------------------|--------------------------|-------------------------|


Chorus:

Melody and chords, 8 bars


    Dbmaj7                     Abmaj7                     Dbmaj7                    Abmaj7       Fm9 Fm7(b9)/C
   
e |--------------------------|15----------13---------13-|--------------------------|-------------------------|
b |6~~----------------13--16-|----------------16-13-----|16--------------13--------|-------------------------|
g |------------13-15---------|--------------------------|---------------------15---|12-------------12--------|
d |--------------------------|--------------------------|--------------------------|--------------------16---|
a |--------------------------|--------------------------|--------------------------|-------------------------|
e |--------------------------|--------------------------|--------------------------|-------------------------|


    Dbmaj7/Bb (Bb9?)           Abmaj7                   Dbmaj7/Bb (?)    Bdim7       C            Gdim7

e |--------------------------|15----------13---------13-|----------------13--------|-------------------------|
b |-------------------13--16-|----------------16-13-----|16-------------------16---|13-------------11---8----|
g |------------13-15---------|--------------------------|--------------------------|-------------------------|
d |15~~----------------------|--------------------------|--------------------------|-------------------------|
a |--------------------------|--------------------------|--------------------------|-------------------------|
e |--------------------------|--------------------------|--------------------------|-------------------------|


Riff in the background of melody and chorus, 8 bars
(these arpeggios seem to start just after the downbeat)

      
e |--------------------------|--------------------------|--------------------------|-------------------------|
b |--------------------------|--------------------------|--------------------------|-------------------------|
g |-------------5------------|-------------3------------|-------------5------------|-------------------------|
d |----------6---------------|----------1---------------|-------3--6---------------|----------1--------------|
a |-----3-4------------------|-----1-3------------------|-----4--------------------|-------3-------(3)--(2)--|
e |--6-----------------------|--4-----------------------|--6-----------------------|--1--4-------------------|

    

e |--------------------------|--------------------------|--------------------------|-------------------------|
b |--------------------------|--------------------------|--------------------------|-------------------------|
g |-------------5------------|-------------3------------|--------------------------|----------------3---3-3--|
d |----------6---------------|----------1---------------|-------3------------3-3-5-|-----2-5-----2-----5----5|
a |-----3-4------------------|-----1-3------------------|-----4----------5--5---(5)|--3-------3--------------|
e |--6-----------------------|--4-----------------------|--6-------6--7------------|-------------------------|


Then it's back to the verse, and the melody comes back, another round of the chorus - pretty straightforward
(but a challenge to play that riff at that speed!)

Tabbed by Michel Lamblin
Добавлено: 10.08.2015
Другие материалы по этой песне:
  • Аккорды и текст

Страница создана 10.08.2015
http://primanota.ru/todd-terje/svensk-sas-chords.htm
Привет, Гость.
Предлагаем пройти революционный курс по гитаре.
Подарок от PrimaNota.Ru, забирай!