PrimaNota.ru - самый крупный в мире бесплатный архив песенных текстов, аккордов, табулатур и нот


Todd Rundgren - International Feel - аккорды и текст, видео

Регистрация Запомнить меня
Войти через:  Facebook Google Twitter Vk Yandex Mail.ru

Todd Rundgren - International Feel - аккорды и текст, видео

Печатать
Просмотров: 54
International Feel
Todd Rundgren
Todd Rundgren - International Feel

notes:
I.  There are multiple versions of this song available on youtube. I tabbed the single version 
    (https://www.youtube.com/watch?v=-1A5WBf1EFQ)
II. There are a lot of unusual chords used in this song, so I've tabbed them out in the order they appear 
    (see below)


> CAPO III <


INTRO

   D/A   A         C/A   G/A

e|---------------------------------|
B|-7-7-7-5-5-5-5-5-5-5-5-3-3-3-3-3-|
G|-7-7-7-6-6-6-6-6-5-5-5-4-4-4-4-4-|
D|-7-7-7-7-7-7-7-7-5-5-5-5-5-5-5-5-| x2
A|-0-0-0-0-0-0-0-0-0-0-0-0-0-0-0-0-|
E|---------------------------------|


VERSE 1
D/A          A
Here we are again
    C/A          G/A
The start of the end
              D/A A              C/A G/A
But there's more  (but there's more)
  D/A          A             C/A        G
I only want to see if you'll give up on me
             F Em  D
But there's always more


CHORUS
F        G
There is more
International feel
F            G
And there is more
Interplanet'ry deals
F/G          C7M  
But there is more
Interstellar appeal
D/C            G/B
Still there is more
   G/A      G7sus4
Universal ideal
F/G            C7M  
Still there is more
     D/E      A
International feel
D/E
Always... 


VERSE 2
  D/A             A
I swear something lies
             C/A        G/A
In your ears and your eyes
               D/A A                C/A  G/A
Cause there's more (cause there's more)
    D/A          A
You hear and you see
           C/A      G
Yet you do not believe
             F Em   D
That there's always more


CHORUS
F        G
There is more
International feel
F            G
And there is more
Interplanet'ry deals
F/G          C7M  
But there is more
Interstellar appeal
D/C           G/B
Still there's more
   G/A      G7sus4
Universal ideal
F/G           C7M  
Still there's more
     D/E      A
International feel

G/E 


BREAK

   D/A   A         C/A   G/A

e|---------------------------------|
B|-7-7-7-5-5-5-5-5-5-5-5-3-3-3-3-3-|
G|-7-7-7-6-6-6-6-6-5-5-5-4-4-4-4-4-|
D|-7-7-7-7-7-7-7-7-5-5-5-5-5-5-5-5-| x7 (last two times, play it softer,
A|-0-0-0-0-0-0-0-0-0-0-0-0-0-0-0-0-|     building up to verse 3)
E|---------------------------------|


VERSE 3
D/A         A
Everyone is blind
C/A           G/A
No one left behind 
               D/A A               C/A  G/A
And there's more    (and there's more)
D/A          A
Wait another year
    C/A              G
You told me how it's here
            F7M   Em   D7
And there's al-   ways more


CHORUS
F        G
There is more
International feel
F            G
And there is more
Interplanet'ry deals
F/G          C7M  
But there is more
Interstellar appeal
D/C           G/B
Still there's more
   G/A      G7sus4
Universal ideal
F/G           C7M  
Still there's more
     D/E      A
International feel

G/E


OUTRO 

   D/A   A         C/A   G/A

e|---------------------------------|
B|-7-7-7-5-5-5-5-5-5-5-5-3-3-3-3-3-|
G|-7-7-7-6-6-6-6-6-5-5-5-4-4-4-4-4-|
D|-7-7-7-7-7-7-7-7-5-5-5-5-5-5-5-5-| (until fade-out)
A|-0-0-0-0-0-0-0-0-0-0-0-0-0-0-0-0-|
E|---------------------------------|




____________________________________________________________
CHORDS

  F/G  C7M   D/C  G/B  G/A  G7sus4  D/E  G/E  F7M    D7

e|-1----3-----2----3----3----3-------2----3----0-----2-----|
B|-1----5-----3----3----3----3-------3----0----1-----1-----|
G|-2----4-----2----0----0----5-------2----0----2-----2-----|
D|------5--------------------3------------0----3-----0-----|
A|------3-----3----2----0----5------------2----3-----------|
E|-3-------------------------3-------0----0----------------|






















Добавлено: 15.08.2015
Другие материалы по этой песне:
  • Аккорды и текст

Страница создана 22.05.2012
http://primanota.ru/todd-rundgren/international-feel-chords.htm
Привет, Гость.
Предлагаем пройти революционный курс по гитаре.
Подарок от PrimaNota.Ru, забирай!