PrimaNota.ru - самый крупный в мире бесплатный архив песенных текстов, аккордов, табулатур и нот


Todd Griffin - That 70s Show Theme Song Season 1 - таба, видео

Регистрация Запомнить меня
Войти через:  Facebook Google Twitter Vk Yandex Mail.ru

Todd Griffin - That 70s Show Theme Song Season 1 - таба, видео

Печатать
Просмотров: 47
Уроки эстрадного вокала в Санкт-Петербурге
-------------------------------------------------------------------------------
                             In the Street - Todd Griffin 
-------------------------------------------------------------------------------
Tabbed by: Abhinav Bairathi
E-mail: abhinavbguitar@gmail.com

Tuning: Standard

e|---------------------------------------------------------------------------|
B|---------------------------------------------------------------------------|
G|-----------------------------------x-5-----------------------------x-5-----|
D|-5-5-5~-----------------5\---------x-5---------------5\------------x-5-----|
A|-5-5-5~-----------5-6-7-5\---------x-3---------5-6-7-5\------------x-3-----|
E|-3-3-3~---3-5-6-7----------------------3-5-6-7-----------------------------|

                          Hanging out!                 Down the street

e|---------------------------------------------------------------------------|
B|---------------------------------------------------------------------------|
G|--------------------------------x-5-----------------------------x-5--------|
D|---------------5\---------------x-5---------------5\------------x-5--------|
A|---------5-6-7-5\---------------x-3---------5-6-7-5\------------x-3--------|
E|-3-5-6-7----------------------------3-5-6-7--------------------------------|

                 The same old thing                We did last week

e|---------------------------------------------------------------------------|
B|---------------------------------------------------------------------------|
G|---------------0-----------------------------------------------------------|
D|---------------0-5----5----2--------5----5----2--------x-5-----------------|
A|---------5-6-7---3----2----0--------3----2----0----5-5-x-3-x-x-5-----------|
E|-3-5-6-7-------------------------------------------3-3-----x-x-3-----------|

              Not a thing to do   but take to you     ooohh yeah!

e|---------------------------------------------------------------------------|
B|---------------------------------------------------------------------------|
G|---------------------------------------------------------------------------|
D|---------------5~----------------------------------------------------------|
A|---------5-6-7-5~----------------------------------------------------------|
E|-3-5-6-7-------------------------------------------------------------------|

                      Hello Wisconsin!

Not that my personal opinion really matters but I think this version was the better compared to the one performed by 
Cheap Trick.

Post your reviews and corrections below.

************************************

| /   slide up
| \   slide down
| h   hammer-on
| p   pull-off
| ~   vibrato
| +   harmonic
| x   Mute note
| b   Bend
| pb  Pre-bend
| br  Bend release
| pbr Pre-bend release
| brb Bend release bend

************************************
Добавлено: 22.12.2015
Другие материалы по этой песне:
  • Аккорды и текст

Страница создана 22.12.2015
http://primanota.ru/todd-griffin/that-70s-show-theme-song-season-1-chords.htm
Привет, Гость.
Предлагаем пройти революционный курс по гитаре.
Подарок от PrimaNota.Ru, забирай!