PrimaNota.ru - самый крупный в мире бесплатный архив песенных текстов, аккордов, табулатур и нот


Today Is The Day - I Hate Everything About You - таба, видео

Регистрация Запомнить меня
Войти через:  Facebook Google Twitter Vk Yandex Mail.ru

Today Is The Day - I Hate Everything About You - таба, видео

Печатать
Просмотров: 93
I Hate Everything About You - Three Days Grace
CD Version
Drop D: DADGBE

Thanks again to "Hal and Leonard" for the chorus! Please rate!

Guitar 1 - Barry Stock
Guitar 2 - Adam Gontier

INTRO   1X
Guitar 1 - Acoustic
        v----1/4 bends
|--------------------------------------------------|
|--------------------------------------------------|
|-------6~-----------6~-----------6~---------6~----|
|----4--6~---------4-6~---------4-6~-------4-6~----|
|----4-------------4-----------4-----------4-------|
|-4-----------0-4---------0-4---------0-4----------|

|--------------------------------------------------|
|--------------------------------------------------|
|--------6~----------6~-----------6~---------6~----|
|-----4--6~--------4-6~---------4-6~-------4-6~----|
|-----4------------4-----------4-----------4-------|
|-0-4----------0-4---------0-4---------0-4---------|

VERSE   4X
Guitar 1 - acoustic
|--------------------------------------------------|
|--------------------------------------------------|
|--------6~----------6~-----------6~---------6~----|
|-----4--6~--------4-6~---------4-6~-------4-6~----|
|-----4------------4-----------4-----------4-------|
|-0-4----------0-4---------0-4---------0-4---------|

|--------------------------------------------------|
|--------------------------------------------------|
|------4-6~--------4-6~--------4-6~--------4-6~----|
|------4-6~--------4-6~--------4-6~--------4-6~----|
|---0-----------0-----------0-----------0----------|
|-0-----------0-----------0-----------0------------|

PRE-CHORUS
Both Guitars (electric) w/ tremolo and distortion

|--------------------------------------------0-----|
|-5------------------------------------------3-----|
|-4------------------------------------------2-----|
|-2--------------------0---------------------0-----|
|-2--------------------0---------------------0-----|
|-2--------------------0---------------------0-----|

CHORUS   2X
Both Guitars - Electric w. Dist.
            v v-I know these are right!! - just saw a live performance!! 
|------------------------------------------------|
|-----------2-2----------------------------------|
|--6-6------2-2------9-9-9-9-9-9--9--4-4-4-4-4-4-|
|--4-4------0-0------7-7-7-7-7-7--7--2-2-2-2-2-2-|
|--4-4------0-0------7-7-7-7-7-7--7--2-2-2-2-2-2-|
|--4-4------0-0------7-7-7-7-7-7--7--2-2-2-2-2-2-|

|------------------------------------------------------------|
|------------------------------------------------------------|
|-6-6-6-6-6-6---6---2-2-2-2-2-2-----4-4-4-4-4-4-----9---8----|
|-4-4-4-4-4-4---4---0-0-0-0-0-0-----2-2-2-2-2-2-----7---6----|
|-4-4-4-4-4-4---4---0-0-0-0-0-0-----2-2-2-2-2-2-----7---6----|
|-4-4-4-4-4-4---4---0-0-0-0-0-0-----2-2-2-2-2-2-----7---6----|


INTERLUDE
Guitar 1 - acoustic
        v----1/4 bends
|--------------------------------------------------|
|--------------------------------------------------|
|-------6~-----------6~-----------6~---------6~----|
|----4--6~---------4-6~---------4-6~-------4-6~----|
|----4-------------4-----------4-----------4-------|
|-4-----------0-4---------0-4---------0-4----------|

Guitar 2 - Electric                            (let ring)
|-----------------------------------------------------0---------|
|-------------------------------------------------3-----3-------|
|-----------------------------------------------6---6-----6-----|
|---------------------------------------------------------------|
|---------------------------------------------------------------|
|---------------------------------------------------------------|

Guitar 1
|--------------------------------------------------|
|--------------------------------------------------|
|------4-6~--------4-6~--------4-6~--------4-6~----|
|------4-6~--------4-6~--------4-6~--------4-6~----|
|---0-----------0-----------0-----------0----------|
|-0-----------0-----------0-----------0------------|

Guitar 1 - acoustic   2X
        v----1/4 bends
|--------------------------------------------------|
|--------------------------------------------------|
|-------6~-----------6~-----------6~---------6~----|
|----4--6~---------4-6~---------4-6~-------4-6~----|
|----4-------------4-----------4-----------4-------|
|-4-----------0-4---------0-4---------0-4----------|

Guitar 1
|--------------------------------------------------|
|--------------------------------------------------|
|------4-6~--------4-6~--------4-6~--------4-6~----|
|------4-6~--------4-6~--------4-6~--------4-6~----|
|---0-----------0-----------0-----------0----------|
|-0-----------0-----------0-----------0------------|

Pre Chorus
Both Guitars (electric) w/ tremolo and distortion

|--------------------------------------------0-----|
|-5------------------------------------------3-----|
|-4------------------------------------------2-----|
|-2--------------------0---------------------0-----|
|-2--------------------0---------------------0-----|
|-2--------------------0---------------------0-----|

Chorus   2X
Both Guitars

|------------------------------------------------|
|-----------2-2----------------------------------|
|--6-6------2-2------9-9-9-9-9-9--9--4-4-4-4-4-4-|
|--4-4------0-0------7-7-7-7-7-7--7--2-2-2-2-2-2-|
|--4-4------0-0------7-7-7-7-7-7--7--2-2-2-2-2-2-|
|--4-4------0-0------7-7-7-7-7-7--7--2-2-2-2-2-2-|

|------------------------------------------------------------|
|------------------------------------------------------------|
|-6-6-6-6-6-6---6---2-2-2-2-2-2-----4-4-4-4-4-4-----9---8----|
|-4-4-4-4-4-4---4---0-0-0-0-0-0-----2-2-2-2-2-2-----7---6----|
|-4-4-4-4-4-4---4---0-0-0-0-0-0-----2-2-2-2-2-2-----7---6----|
|-4-4-4-4-4-4---4---0-0-0-0-0-0-----2-2-2-2-2-2-----7---6----|


Bridge
Guitar 2
|--------------------------------------------------------------|
|--------------------------------------------------------------|
|-13-13-13-14-14-14-16-16--13-13-13-14-14-14-16-16-------------|
|--x--x--x--x-x--x--x--x---x--x--x--x--x--x--x--x--------------|
|-11-11-11-12-12-12-14-14--11-11-11-12-12-12-14-14-------------|
|--------------------------------------------------------------|

|--------------------------------------------------------------|
|--------------------------------------------------------------|
|-13-13-13-14-14-14-16-16---13-13-13--14/13----9---------------|
|--x--x--x--x--x--x--x--x----x--x--x---x-------x---------------|
|-11-11-11-12-12-12-14-14---11-11-11--12/11----7---------------|
|--------------------------------------------------------------|

|--------------------------------------------------------------|
|--------------------------------------------------------------|
|-13-13-13-14-14-14-16-16--13-13-13-14-14-14-16-16-------------|
|--x--x--x--x-x--x--x--x---x--x--x--x--x--x--x--x--------------|
|-11-11-11-12-12-12-14-14--11-11-11-12-12-12-14-14-------------|
|--------------------------------------------------------------|

|--------------------------------------------------------------|
|--------------------------------------------------------------|
|-13-13-13-14-14-14-16-16---13-13-13--14/13----9/6-------------|
|--x--x--x--x--x--x--x--x----x--x--x---x-------x/x-------------|
|-11-11-11-12-12-12-14-14---11-11-11--12/11----7/4-------------|
|--------------------------------------------------------------|

|--------------------------------------------------|
|--------------------------------------------------|
|-------6~-----------6~-----------6~---------------|
|----4--6~---------4-6~---------4-6~-------4-------|
|----4-------------4-----------4-----------4-------|
|-4-----------0-4---------0-4---------0-4----------|

Chorus   2X
Both Guitars

|------------------------------------------------|
|-----------2-2----------------------------------|
|--6-6------2-2------9-9-9-9-9-9--9--4-4-4-4-4-4-|
|--4-4------0-0------7-7-7-7-7-7--7--2-2-2-2-2-2-|
|--4-4------0-0------7-7-7-7-7-7--7--2-2-2-2-2-2-|
|--4-4------0-0------7-7-7-7-7-7--7--2-2-2-2-2-2-|

|------------------------------------------------------------|
|------------------------------------------------------------|
|-6-6-6-6-6-6---6---2-2-2-2-2-2-----4-4-4-4-4-4-----9---8----|
|-4-4-4-4-4-4---4---0-0-0-0-0-0-----2-2-2-2-2-2-----7---6----|
|-4-4-4-4-4-4---4---0-0-0-0-0-0-----2-2-2-2-2-2-----7---6----|
|-4-4-4-4-4-4---4---0-0-0-0-0-0-----2-2-2-2-2-2-----7---6----|
Добавлено: 13.07.2013
Другие материалы по этой песне:
  • Аккорды и текст

Страница создана 13.07.2013
http://primanota.ru/today-is-the-day/i-hate-everything-about-you-chords.htm
Привет, Гость.
Предлагаем пройти революционный курс по гитаре.
Подарок от PrimaNota.Ru, забирай!