PrimaNota.ru - самый крупный в мире бесплатный архив песенных текстов, аккордов, табулатур и нот


Tocotronic - So Jung Kommen Wir Nicht Mehr Zusammen - текст песни, таба, видео

Регистрация Запомнить меня
Войти через:  Facebook Google Twitter Vk Yandex Mail.ru

Tocotronic - So Jung Kommen Wir Nicht Mehr Zusammen - текст песни, таба, видео

Печатать
Просмотров: 119
So jung kommen wir nicht mehr zusammen
---------------------------------------------------------------------------


e    C               e          h
  So jung kommen wir nicht mehr zusammen
e    C           e        h         C
  So jung werden wir uns nicht mehr sehen
        G                           a
Und ich find es zwar schön doch ich weiß nicht genau
       C
werden wir uns verstehen ?


Akkorde parallel zum Solo:
e C e h


Solo:
e --------------------------------------------------------------------------------------|
H --------------------------------------------------------------------------------------|
G --------------------------------------------------------------------------------------|
D --2-5-7-9-7-5-5~~--2-5-9-7-9~~--9--9-9-7-5-5~~--7-9--7-9~~--9-9-7-7-9-9~-7-9-7-7-9-9--|
A --------------------------------------------------------------------------------------|
E --------------------------------------------------------------------------------------|

e --------------------------------------------------------------------------------------|
H --------------------------------------------------------------------------------------|
G --------------------------------------------------------------------------------------|
D --9-9-7-7-9-9~~--12-14-12-14-14-14-12-14~-14-14-14-12-12~-14-14-12-14-12-14~~---------|
A --------------------------------------------------------------------------------------|
E --------------------------------------------------------------------------------------|

e --------------------------------------------------------------------------------------|
H --------------------------------------------------------------------------------------|
G -----------------------------------------------------------------------15(16)-15(16)--|
D --14-14-12-12-9-9-7-7-9-9-7-7-9-12-14-14-12-12-14-14-12-14~~--14-14-14----------------|
A --------------------------------------------------------------------------------------|
E --------------------------------------------------------------------------------------|

e --------------------------------------------------------------------------------------|
H --------------------------------------------------------------------------------------|
G --15(16)-15(16)-15(16)-15(16)-0----------------------0-15(16)-15(16)-15(16)-15(16)----|
D --------------------------------12/14-12-14-12-9-7-7----------------------------------|
A --------------------------------------------------------------------------------------|
E --------------------------------------------------------------------------------------|

e --------------------------------------------------------------------------------------|
H --------------------------------------------------------------------------------------|
G --15(16)-15(16)-15(16)-0---------------15(16)-15(16)-15(16)-15(16)-15(16)-15(16)------|
D -------------------------14-12-14~~--0------------------------------------------------|
A --------------------------------------------------------------------------------------|
E --------------------------------------------------------------------------------------|

e ---------------------------------------------------------------------------------------|
H ---------------------------------------------------------------------------------------|
G ----------------------7-9-9/15(16)-15(16)-15(16)-15(16)-15(16)-15(16)-15(16)-15(16)~~~-|
D --0-14-12-14-12-9-7-9------------------------------------------------------------------|
A ---------------------------------------------------------------------------------------|
E ---------------------------------------------------------------------------------------|

e --------------------------------------------------------------------------------------|
H --------------------------------------------------------------------------------------|
G --15(16)-15(16)-15(16)~~--15(16)-15(16)-15(16)-0------------15(16)~~--15(16)-15(16)---|
D -------------------------------------------------12~-14~-14---------------------------|
A --------------------------------------------------------------------------------------|
E --------------------------------------------------------------------------------------|

e --------------------------------------------------------------------------------------|
H --------------------------------------------------------------------------------------|
G -15(16)\9-9-7-------------------------------------------------------------------------|
D --------------9-7-9-12-14-12-14~-14-14-12-9-7-9---12-14-12-9-7-9---12-14-12-9-7-9~~~--|
A --------------------------------------------------------------------------------------|
E --------------------------------------------------------------------------------------|

e --------------------------------------------------------------------------------------|
H --------------------------------------------------------------------------------------|
G --------------------------------------------------------------------------------------|
D --7-9-9h7-9-7-7-9-7-9---7-9-7-9-9-7-9---9-9/15\14-14-14-12-14-12-12-9-7-7h9-7-9-7-7---|
A --------------------------------------------------------------------------------------|
E --------------------------------------------------------------------------------------|

e --------------------------------------------------------------------------------------|
H --------------------------------------------------------------------------------------|
G -----------------------------------15(16)-15(16)-15(16)-15(16)-15(16)-15(16)\7-7h9----|
D --0-0-0-7-9-9-9/12-14-12-14-12-14~/---------------------------------------------------|
A --------------------------------------------------------------------------------------|
E --------------------------------------------------------------------------------------|

e --------------------------------------------------------------------------------------|
H --------------------------------------------------------------------------------------|
G --7-9/15(16)-15(16)-15(16)-15(16)\7-7h9-7-9/15(16)-15(16)-15(16)-15(16)-15(16)\9-9-7--|
D --------------------------------------------------------------------------------------|
A --------------------------------------------------------------------------------------|
E --------------------------------------------------------------------------------------|

e --------------------------------------------------------------------------------------|
H --------------------------------------------------------------------------------------|
G --9-7-9~-7-9~~-~~-9--7------------------------0--0-2-4-2-2--0-0------0-2-4-2--4~~~----|
D ------------------------9--7--9--12--14--14\0-2--2----------------2-------------------|
A ----------------------------------------------2--2----------------2-------------------|
E ----------------------------------------------0--0----------------0-------------------|

e --------------------------------------------------------------------------------------|
H --------------------------------------------------------------------------------------|
G --4--4-2-0-0----4-2--4-4-------0-2--4-2------0-2--4----4(5)~~~------------------------|
D ----------------------------2----------------------------------------4~4~-4~~---------|
A ----------------------------2-------------2------------------------2------------------|
E ----------------------------0-------------0------------------------0------------------|

e ---------------------------------0--0-0-0-0-0-0-0--0-0-0-0-0-0-0--0-0-0-0-0-0---------|
H ---------------------------------0--0-0-0-0-0-0-1--1-1-1-1-1-1-0--0-0-0-0-0-0---------|
G --2~-4-4~~--4(5)~-2-4~~---4/9\0--0--0-0-0-0-0-0-0--0-0-0-0-0-0-0--0-0-0-0-0-0-0-4-2---|
D ---------------------------------2--2-2-2-2-2-2-2--2-2-2-2-2-2-2--2-2-2-2-2-2---------|
A ---------------------------------2--2-2-2-2-2-2-3--3-3-3-3-3-3-2--2-2-2-2-2-2---------|
E ---------------------------------0--0-0-0-0-0-0-0--0-0-0-0-0-0-0--0-0-0-0-0-0---------|

e --------------------------------------------------------------------------------------|
H --------------------------------------------------------------------------------------|
G --4-2-4(5)~~~--(4)~~~----(ausklingen lassen)------------------------------------------|
D --------------------------------------------------------------------------------------|
A --------------------------------------------------------------------------------------|
E --------------------------------------------------------------------------------------|

This tab is from www.tocotronix.de
Добавлено: 08.06.2012
Другие материалы по этой песне:
  • Аккорды и текст

Страница создана 08.06.2012
http://primanota.ru/tocotronic/so-jung-kommen-wir-nicht-mehr-zusammen-chords.htm
Привет, Гость.
Предлагаем пройти революционный курс по гитаре.
Подарок от PrimaNota.Ru, забирай!