PrimaNota.ru - самый крупный в мире бесплатный архив песенных текстов, аккордов, табулатур и нот


Tocotronic - Mein Ruin - текст песни, бас-таба, видео

Регистрация Запомнить меня
Войти через:  Facebook Google Twitter Vk Yandex Mail.ru

Tocotronic - Mein Ruin - текст песни, бас-таба, видео

Печатать
Просмотров: 121
Уроки эстрадного вокала в Санкт-Петербурге
----------------------------------------------------------------------------
   Tocotronic - Mein Ruin (Bass Tab)
----------------------------------------------------------------------------
   Album: Kapitulation (2007)
----------------------------------------------------------------------------
Tabbed by Marcus Hautz (endofallthings at gmx. de)   2009/02/17

*Hints*
- At the beginning of a verse and sometimes in between are breaks (*) 
  with the snare, which you should emphasize. Try and play a low E instead
  of the high E. 
- In the Chorus try not just to play 8ths, go along with the drums.
- Also, there are some chorus variations, where the bass supports the
  vocal melody and plays a little line similiar to the intro/bridge.

Here are the parts of the song, the makeup & lyrics follow up.

Intro (Em C Em Hm)
G|-------------------------------------------------------------------------|
D|-------------------------------------------------------------------------|
A|-7---7-7-9-10-9-7---------------------7---7-7-9-10-10-10-----------------|
E|------------------8-8-8-8-8-10-10-10---------------------7-7-7-7-7-7-7-7-|

G|-------------------------------------------------------------------------|
D|-------------------------------------------------------------------------|
A|-7---7-7-9-10-9-7---------------------7---7-7-9-10-10-10-----------------|
E|------------------8-8-8-8-8-10-10-10---------------------7-7-7-7-7-101010|

Verse (Em C Em Hm) 

G|------------------------------------------------------------------------|
D|------------------------------------------------------------------------|
A|-7-*-7----7---7-----------------7-*-7----7---7--------------------------|
E|----------------8-8-8---8-8-8------------------7-7-7---7-7-10-----------|

Chorus (Am Am G D)

G|------------------------------------------------------------------------|
D|------------------------------------------------------------------------|
A|-------------------------------------------------5-5-5-5-5-5-5-5--------|
E|-5---5-5-5-5-5-5-5-5-5-5-5-5-5-5-3---3-3-3-3-3-3------------------------|

G|------------------------------------------------------------------------|
D|------------------------------------------------------------------------|
A|---------------------------------------------3-3-5-5-5-5-5-5-5-5--------|
E|-5---5-5-5-5-5-5-5-5-5-5-5-5-5-5-3---3-3-3-3----------------------------|

G|------------------------------------------------------------------------|
D|------------------------------------------------------------------------|
A|------------------------------------------------------------------------|
E|-5---5-5-5-5-5-5-5-5-5-5-5-5-5-5-5---5-5-5-5-5-5-5-5-5-5-5-5-5-SLIDE----|

Climb Verse (Downwards progression, E,D,C ends on A with new chorus)
G|------------------------------------------------------------------------|
D|------------------------------------------------------------------------|
A|-19-19-19-19-19-...-17-17-17-...--15-15-15...--14-14-14-----------------|
E|------------------------------------------------------------------------|


*******SONG MAKEUP & LYRICS **********

-INTRO-


-VERSE- 
Mein Ruin das ist zunächst 
Etwas das gewachsen ist 
Wie eine Welle die mich trägt 
Und mich dann unter sich begräbt 

-VERSE PATTERN- 

-VERSE-
Mein Ruin ist was mich zieht 
Wiederholung als Prinzip 
Ein Zusammenbruch, ein Fall 
Ein Versuch, ein Donnerhall 

-INTRO PATTERN- 

-VERSE-
Mein Ruin ist Heiligtum 
Diebstahl und Erinnerung 
Geboren aus Unsicherheit 
Freude und Zerbrechlichkeit 

-VERSE-
Mein Ruin ist Unverstand 
Kein Märtyrer, nur Komödiant 
Nur aus Kälte und Distanz 
Verleih' ich mir den Lorbeerkranz 

-CHORUS- 
Mein Ruin ist mein Bereich 
Denn ich bin nicht einer von euch 
Mein Ruin ist was mir bleibt 
Wenn alles andere sich zerstäubt

-VERSE-
Mein Ruin das ist mein Ziel 
Die Lieblingsrolle die ich spiel' 
Mein Ruin ist mein Triumph 
Empfindlichkeit und Unvernunft 

-VERSE PATTERN-

-VERSE-
Eine Befreiung, eine Pracht 
Sanfter als die tiefste Nacht 
Die ab jetzt für immer bleibt 
Und ihre eigenen Lieder schreibt 

-CHORUS-
Mein Ruin ist mein Bereich 
Denn ich bin nur einer von euch 
Mein Ruin ist was mir bleibt 
Wenn alles andere sich betäubt

-INTRO PATTERN-

-CLIMB VERSE- 
Mein Ruin ist weiterhin 
Eine Arbeit ohne Sinn 
Etwas das man nie bereut 
Eine Abgeschiedenheit 
Mein Ruin ist nur verbal 
Feigheit vor dem Feind der Qual 
Der Trauer und der tiefen Not 
Mein größtes Glück, ein tiefes Rot 

-CHORUS- (2x)
Mein Ruin ist mein Bereich 
Denn ich bin einer unter euch 
Mein Ruin ist was mir bleibt 
Wenn alles andere sich zerstäubt 

-INTRO PATTERN-

-VERSE-
Mein Ruin das ist zunächst 
Etwas das gewachsen ist 
Wie eine Welle die mich trägt 
Und mich dann unter sich begräbt 

Wie eine Welle die mich trägt 
Und mich dann unter sich begräbt 

Wie eine Welle die mich trägt 
Und mich dann unter sich begräbt 
Добавлено: 02.03.2012
Другие материалы по этой песне:
  • Аккорды и текст

Страница создана 02.03.2012
http://primanota.ru/tocotronic/mein-ruin-chords.htm
Привет, Гость.
Предлагаем пройти революционный курс по гитаре.
Подарок от PrimaNota.Ru, забирай!