PrimaNota.ru - самый крупный в мире бесплатный архив песенных текстов, аккордов, табулатур и нот


Tocotronic - Du Bist Ganz Schoen Bedient - аккорды и текст, таба, видео

Регистрация Запомнить меня
Войти через:  Facebook Google Twitter Vk Yandex Mail.ru

Tocotronic - Du Bist Ganz Schoen Bedient - аккорды и текст, таба, видео

Печатать
Просмотров: 101
Du Bist Ganz Schoen Bedient
Tocotronic
		   Tocotronic - Du bist ganz schoen bedient
taken from the album "Nach der verlorenen Zeit" (1995)

the song was tabbed by M.Faenger, Nierenhof, Germoney
and brought to net by A.Dietzel (dietzel@uni-duesseldorf.de)


                        G                     Am    F
Du bist ganz schoen bedient, hast Du zu mir gesagt  haha

                       G                    Am    F
womit hab ich das verdient, hab ich mich gefragt  haha


Ref.:
      G              Am           F  (off)     F
Und alles, was ich sagen will ist: Halt zu mir

  G              Am           F         C      G         D
alles, was ich sagen will ist: Halt um Himmelswillen zu mir

                            G                       Am   F
Vielleicht hab ich mich blamiert, als ich betrunken war  haha

                            G                             Am         F
Ich glaub es ist mir schon passiert, schon zehntausendmal dies Jahr  haha


Ref.


Solo:                 G                       Am     F     G
e-----------------|---3---|-----------------|-----|--1--|--3---|
B-----------------|-------|-----------------|--1--|--1--|------|
G--0--2--4--2--0--|-------|--0--2--4--2--0--|--2--|--2--|------|
D-----------------|-------|-----------------|--2--|--3--|------|
A-----------------|---2---|-----------------|-----|--3--|--2---|
E-----------------|---3---|-----------------|-----|--1--|--3---|

                      G                       Am     F     G
e-----------------|-------|-----------------|-----|--1--|--3---|
B-------0-1-3-----|-------|-----------------|--1--|--1--|------|
G--0--2-------0---|-------|--0--2--4--2--0--|--2--|--2--|------|
D-----------------|-------|-----------------|--2--|--3--|------|
A-----------------|-------|-----------------|-----|--3--|--2---|
E-----------------|-------|-----------------|-----|--1--|--3---|

Ref.



If youïve got more Tocotronic-tabs or ideas to make our tabs better,
then write to: dietzel@uni-duesseldorf.de
Weïre interested in german "schlager" as well!     
Добавлено: 25.07.2013
Другие материалы по этой песне:
  • Аккорды и текст

Страница создана 19.06.2012
http://primanota.ru/tocotronic/du-bist-ganz-schoen-bedient-chords.htm
Привет, Гость.
Предлагаем пройти революционный курс по гитаре.
Подарок от PrimaNota.Ru, забирай!