PrimaNota.ru - самый крупный в мире бесплатный архив песенных текстов, аккордов, табулатур и нот


Toby Turner - Tobuscus Theme - таба, бас-таба, видео

Регистрация Запомнить меня
Войти через:  Facebook Google Twitter Vk Yandex Mail.ru

Toby Turner - Tobuscus Theme - таба, бас-таба, видео

Печатать
Просмотров: 196
Tobuscus Theme Song
Intro
e|--------------------------------|--------------------------------|
B|--------------------------------|--------------------------------|
G|--------------------------------|--------------------------------|
D|------0-5/7--------------3p0----|------0-5/7---5-5-5/7-7---------|
A|--------------7-5-5-5-5------3p0|--------------3-3-3/5-5---------|
D|-1/3--------0-------------------|-1/3--------0-------------------|

Solo
e|-10p8----8----------------------|-10p8----8----8-10-12-10-8-10---|
B|------10---10-8-10-11-10-8-10---|------10---10-------------------|
G|------------------------------7-|--------------------------------|
D|--------------------------------|--------------------------------|
A|--------------------------------|--------------------------------|
D|--------------------------------|--------------------------------|

e|-10p8----8----------------------|--------------------------------|
B|------10---10-8-10-11-10-8-10---|-11-10-8------------------------|
G|------------------------------7-|---------10-9----10-9-----------|
D|--------------------------------|--------------10-------10/12----|
A|--------------------------------|--------------------------------|
D|--------------------------------|--------------------------------|

That is all! just repeat the intro part a few times, you have to listen
to the song a few times to do that correct ;)
I'm about 90% sure this is correct
Добавлено: 18.07.2012
Другие материалы по этой песне:

Страница создана 15.03.2012
http://primanota.ru/toby-turner/tobuscus-theme-chords.htm
Привет, Гость.
Предлагаем пройти революционный курс по гитаре.
Подарок от PrimaNota.Ru, забирай!