PrimaNota.ru - самый крупный в мире бесплатный архив песенных текстов, аккордов, табулатур и нот


Toby Mac - Slam - текст песни, таба, бас-таба, видео

Регистрация Запомнить меня
Войти через:  Facebook Google Twitter Vk Yandex Mail.ru

Toby Mac - Slam - текст песни, таба, бас-таба, видео

Печатать
Просмотров: 274
-----------------------------------------------------------------------------
                             The Slam - Tobymac
-----------------------------------------------------------------------------
Tabbed by: The Redeemer
Email:sammyrvargas@hotmail.com

Note:
This is my second tab and it's also tabbed from the alive and transported album I hope 
good it should be accurate I'm always open for suggestions so you can email me at 
the suggestions so I hope you like it and God Bless

Tuning: Drop D

Intro:
e|----------------------|
B|----------------------|
G|----------------------|
D|-----------1----------|
A|-------1h4------------|
D|1h4p1---------1h4p1---|X3

then
e|-------------------|
B|-------------------|
G|-------------------|
D|-----------1--456--|
A|-------1h4----456--|
D|1h4p1---------456--|X1

Verse:
e|----------------------|
B|----------------------|
G|----------------------|
D|-----------1----------|
A|-------1h4------------|
D|1h4p1---------1h4p1---|X3

Then
e|-------------------|
B|-------------------|
G|-------------------|
D|-----------1--456--|
A|-------1h4----456--|
D|1h4p1---------456--|X1

Chorus:
e|--------------------------------------------------------------------------|
B|--------------------------------------------------------------------------|
G|---8------6------8---10/11------13------15-------17-----------------------|
D|---x-x12--x-x4---x-x8-x/x---x3—-x---x3--x---x16--x---x10------------------|
A|---6------4------6----8/9-------11------13-------15-----------------------|
D|--------------------------------------------------------------------------|


e|-----------------|  Then |-----------|
B|-----------------|        |----------|
G|-----------------|       |-----------|(First Ending)
D|---11------------|       |-----------|
A|---11-1--66-44---|       |--123------|
D|---11-1----------|X3     |-----------|X1

e|-----------------|       |--------|
B|-----------------|       |--------|
G|-----------------|       |-----6--|(Second Ending)
D|---11------------|       |--11-6--|
A|---11-1--66-44---|       |--11-4--|
D|---11-1----------|X3     |--11----|X1

Verse 2:
e|---------------------------------------|
B|---------------------------------------|
G|-----------------------------------666-|
D|----------1---------------------1--666-|
A|------1h4-------------------1h4----444-|
D|1h4p1-------1h4p1-----1h4p1------------|X1

e|---------------------------------------|
B|---------------------------------------|
G|---------------------------------------|
D|----------1-----------1----456---------|
A|------1h4---------1h4------456---------|
D|1h4p1-------1h4p1----------456---------|

 ^ ^ ^ ^ ^ ^ ^ ^ ^ ^ ^ ^ ^ ^ ^ ^ ^ ^ ^ ^ ^
After this part he does something I don't what it was though so if someone could help me on that

e|-------------------------------------------------------------------------|
B|-------------------------------------------------------------------------|
G----------------------------15----14----13--------------------------------|
D|----------1----------------x—-x3-x—-x3-X—x2------------------------------|
A|------1h4----------1h4-----13----12----11--------------------------------|
D|1h4p1--------1h4p1-------------------------------------------------------|

Chorus:
e|-------------------------------------------------------------------------|
B|-------------------------------------------------------------------------|
G|---8------6------8---10/11------13------15-------17----------------------|
D|---x-x12--x-x4---x-x8-x/x---x3—-x---x3--x---x16--x---x10-----------------|
A|---6------4------6----8/9-------11------13-------15----------------------|
E|-------------------------------------------------------------------------|

Then
e|---------------|     |-----------|
B|---------------|     |-----------|
G|---------------|     |-----------|
D|-11-1----------|     |-----------|
A|-11-1--66-44---|     |---123-----|
E|-11-1----------|X3   |-----------|X1
e|---------------|     |-----------|
B|---------------|     |-----------|
G|---------------|     |-----6-----|
D|-11-1----------|     |-11--6-----|
A|-11-1--66-44---|     |-11--4-----|
E|-11-1----------|X3   |-11--------|X1

This tab should be at least 95% accurate if not again I am open for suggestions so email 
and may god bless you
Добавлено: 23.04.2012
Другие материалы по этой песне:
  • Аккорды и текст

Страница создана 13.03.2012
http://primanota.ru/toby-mac/slam-chords.htm
Привет, Гость.
Предлагаем пройти революционный курс по гитаре.
Подарок от PrimaNota.Ru, забирай!