PrimaNota.ru - самый крупный в мире бесплатный архив песенных текстов, аккордов, табулатур и нот


Toby Mac - Funky Jesus Music - таба, видео

Регистрация Запомнить меня
Войти через:  Facebook Google Twitter Vk Yandex Mail.ru

Toby Mac - Funky Jesus Music - таба, видео

Печатать
Просмотров: 128
Intro

e--------------------|
b--------------------|
g--------------------| 2X
d-9999-7777-5555-3333|
a-9999-7777-5555-3333|
e-7777-5555-3333-1111|

e----------------------------------------- |
b----------------------------------------- |
g------------------55555-------------------| 2X
d------------77777-55555-55555555555-333333|
a------------77777-33333-55555555555-333333|
e------------55555-------33333333333-111111|
Give me that Funky Funky Funky

Verse

e---------------------------------------------------------------|
b---------------------------------------------------------------|
g---------------------------------------------------------------|
d-7------------7----------------------7-------7-----------------|
a-7------------7----------------------7-------7-----------------|
e-5------------5----------------------5-------5-----------------|
Yo stick it in red We got the cred No need to say what's already

e------------------------------------------------------------|
b------------------------------------------------------------|
g------------------------------------------------------------|
d---------------7-------7----------------------------------7-|
a---------------7-------7----------------------------------7-|
e---------------5-------5----------------------------------5-|
been said Don't need to please When we got the proof We be on

e---------------------------------------------------------|
b---------------------------------------------------------|
g---------------------------5-----------------------------|
d---7-----------------------5-----------7----------7------|
a---7-----------------------3-----------7----------7------|
e---5-----------------------------------5----------5------|
our knees When we raise the roof 'Cause we got the one pot

e------------------------------------------------------------|
b------------------------------------------------------------|
g------------------------------------------------------------|
d----------------7-------7---------------------7-----7-------|
a----------------7-------7---------------------7-----7-------|
e----------------5-------5---------------------5-----5-------|
mix of flavor We got the funky Jesus blazer No equal Diverse


e---------------------------------------|
b---------------------------------------|
g---------------------------------5-----|
d---------------------------------5-----|
a---------------------------------3-----|
e---------------------------------------|
people Come get it now Won't be a sequal

Pre-Chorus

e--------------------------------------------------------------|
b--------------------------------------------------------------|
g--------------------------------------------------------------|
d-777777777777777777-55555-3333333333333333333333333------7777-|
a-777777777777777777-55555-3333333333333333333333333------7777-|
e-555555555555555555-33333-1111111111111111111111111------5555-|
  None of that mumbo jumbo Give me that hip hop funk soul Give

e-----------------------------------------------------|
b-----------------------------------------------------|
g-----------------------------------------------------|
d-7777777777777-55555555555-55555555555555555555555555|
a-7777777777777-55555555555-33333333333333333333333333|
e-5555555555555-33333333333-11111111111111111111111111|
  me that funky Jesus music Give me that soulful gumbo

Chorus

e----------------------------------------------------------------|
b----------------------------------------------------------------|
g------------------5555------------------------------------------|
d------------77777-5555-55555-33333333333--------------777777777-|
a------------77777-3333-55555-33333333333--------------777777777-|
e------------55555------33333-11111111111--------------555555555-|
Give me that funky      Funky Jesus Music Give me that hip, that

e-----------------------------------------------------------|
b-----------------------------------------------------------|
g-------555555555555555-------------------------------------|
a-55555-555555555555555-555555555555555555-3333-------------|
d-55555-333333333333333-555555555555555555-3333-------------|
e-55555-----------------333333333333333333-1111-------------|
  rock, that funky soul Give me that juicy flow Give me that

e----------------------------------------------------------------|
b----------------------------------------------------------------|
g-------5555------------------------------------------------5555-|
d-77777-5555-55555555555-33333--------------77777777777777--5555-|
a-77777-3333-55555555555-33333--------------77777777777777--3333-|
e-55555------33333333333-11111--------------55555555555555-------|
  funky      Funky Jesus Music Give me that hip, that rock, that

e----------------------------------------------|
b----------------------------------------------|
g-5555555555-----------------------------------|
d-5555555555-55555555555555555555-3333333333333|
a-3333333333-55555555555555555555-3333333333333|
e------------33333333333333333333-1111111111111|
  funky soul And watch this party grow Let's go

Post-Chorus

e----------------|
b----------------|
g-----555--------|  2X
d-777-555-555-3-3|
a-777-333-555-3-3|
e-555-----333-1-1|

Verse 2 (Same as Verse 1)
Look at them freaks, they fashion loud
Makin' that hotness, movin' that crowd
Bumpin' that jump with a life injection
Sweet to the ears like the candy section
Hits to the eyes
Feels so fly
Fashion that just won't subside
We got this winner's ball
So check it out
Gonna' watch 'em fall

Pre-Chorus

Chorus

Post-Chorus

Bridge (No Guitar)
We're goin' back
We're goin' way back

Verse 3
From coast to coast
This is the most
We got beats and rhymes
And aftershows
We got funky people on the highs and lows
MC's like Wiggy they call us pros
So, sure shot, I could take stock
of this
I'll play the post in the b-boy bliss
See, we bum rush with no discussion
A red hot show with freak production

Pre-Chorus

Chorus
Добавлено: 11.08.2013
Другие материалы по этой песне:
  • Аккорды и текст

Страница создана 11.08.2013
http://primanota.ru/toby-mac/funky-jesus-music-chords.htm
Привет, Гость.
Предлагаем пройти революционный курс по гитаре.
Подарок от PrimaNota.Ru, забирай!