PrimaNota.ru - самый крупный в мире бесплатный архив песенных текстов, аккордов, табулатур и нот


Toby Fox - Its Raining Somewhere Else - бас-таба, видео

Регистрация Запомнить меня
Войти через:  Facebook Google Twitter Vk Yandex Mail.ru

Toby Fox - Its Raining Somewhere Else - бас-таба, видео

Печатать
Просмотров: 138
Авторы музыки: Toby Fox

-------------------------------------------------------------------------------
                      Undertale - It's Raining Somewhere Else
-------------------------------------------------------------------------------
Tabbed by: David Keeler
E-mail: davidakeeler@gmail.com
Reference Video: https://www.youtube.com/watch?v=zNd4apsr3WE
Tuning: Standard

x1-0:39 x2-1:00 x3-1:20
G|--------------------------------------------------------------------------------|
D|-----10----------10------------5----------5------------8----------8-----------3-|
A|---------10-----------8-10---------5---------5-6-----------8----------8-3-------|
E|-8-----------8-------------3----------3------------6----------6-----------1-----|
               
G|-----------------| 
D|-----------------|  x3 (Repeat the top to here. Don't only repeat 
A|-3------8-----6--|      the last 5 notes. Use the time markers along with the
E|----1-------8----|      video for help.)
1:39
G|------------------------|
D|------------------------|
A|---------------4--------|
E|-4------3-------------1-|
I-1:59 II-2:20
G|-----------------------------------------------------------------------------|
D|-----10----------10------------5----------5------------8----------8----------|
A|---------10-----------8-10---------5---------5-6-----------8----------8-3----|
E|-8-----------8-------------3----------3------------6----------6-----------1--|
           I               II
G|--------------------|-----------|
D|-3------------------|---3-------|  After playing ending I go back to the
A|-----3------8-----6-|-3---3-----|  fourth line of notes and play the second
E|--------1-------8---|---------1-|  ending (II)



| /  slide up
| \  slide down
| h  hammer-on
| p  pull-off
| ~  vibrato
| +  harmonic
| x  Mute note
===============================================================================
Добавлено: 15.03.2016
Другие материалы по этой песне:
  • Аккорды и текст

Страница создана 15.03.2016
http://primanota.ru/toby-fox/its-raining-somewhere-else-chords.htm
Привет, Гость.
Предлагаем пройти революционный курс по гитаре.
Подарок от PrimaNota.Ru, забирай!