PrimaNota.ru - самый крупный в мире бесплатный архив песенных текстов, аккордов, табулатур и нот


Tobuscus - Swing My Sword - таба, видео

Регистрация Запомнить меня
Войти через:  Facebook Google Twitter Vk Yandex Mail.ru

Tobuscus - Swing My Sword - таба, видео

Печатать
Просмотров: 86
Artist: Tobuscus (YouTube)
Song: Swing My Sword
Parts: 3 (Guitar 1&2/Bass)
Tabbed by: jacobdeleon3000 (jacob24648@yahoo.com)
Link: www.youtube.com/watch?v=eN7dYDYfvVg


Bass:
G|----------------------------------------------0--------|
D|---------------------------------0-2-2---2--2--2-2-----|
A|---------------------0-2-2---2-2-----------------------|
E|-00-0-0-3--3---3-0-3-----------------------------------|

Bass is behind all other parts ad is never by itself.

Guitar 1:
e|-00-0-0-3--3---3-0-3-5-7-7---7-7-10-12-12---12--12-15-12-12---|
B|--------------------------------------------------------------|
G|--------------------------------------------------------------|
D|--------------------------------------------------------------|
A|--------------------------------------------------------------|
E|--------------------------------------------------------------|

Guitar 1 is the "Main" part, the lead.

Guitar 2:
e|------------------------------------0--0---0--0-3-0-0--|
B|-----------------------0-0----0-0-3--------------------|
G|--------0--0---0---0-2---------------------------------|
D|-22-2-2----------2-------------------------------------|
A|-------------------------------------------------------|
E|-------------------------------------------------------|

Guitar 2 is the rhythm behind the lead.

This is my third tab, but only the first accepted by UG.
Добавлено: 01.12.2013
Другие материалы по этой песне:
  • Аккорды и текст

Страница создана 15.11.2013
http://primanota.ru/tobuscus/swing-my-sword-chords.htm
Привет, Гость.
Предлагаем пройти революционный курс по гитаре.
Подарок от PrimaNota.Ru, забирай!