PrimaNota.ru - самый крупный в мире бесплатный архив песенных текстов, аккордов, табулатур и нот


TobiasBlue - Chess - таба

Регистрация Запомнить меня
Войти через:  Facebook Google Twitter Vk Yandex Mail.ru

TobiasBlue - Chess - таба

Печатать
Просмотров: 30
-------------------------------------------------------------------------------
                             Chess - TobiasBlue
-------------------------------------------------------------------------------
Tabbed by:r3tr0R4z0r
E-mail:

Tuning:Standard

e|-------------------------------------------------------------------------|
B|-------------------------------------------------------------------------|
G|---7-7------7-----------------------------7-7----7-----------------------|
D|---7-7------7--7--7-----7--9-9----9--7-7--7-7-7--7-----------------------|
A|---5-5----- 5--7--7-----7--9-9----9--7-7--5-5-7--5-----------------------|
E|---------------5--5-----5--7-7----7--5-5------5--------------------------|
Добавлено: 09.06.2016
Другие материалы по этой песне:
  • Аккорды и текст

Страница создана 09.06.2016
http://primanota.ru/tobiasblue/chess-chords.htm
Привет, Гость.
Предлагаем пройти революционный курс по гитаре.
Подарок от PrimaNota.Ru, забирай!