PrimaNota.ru - самый крупный в мире бесплатный архив песенных текстов, аккордов, табулатур и нот


Tobias Jesso Jr - The Wait - таба, видео

Регистрация Запомнить меня
Войти через:  Facebook Google Twitter Vk Yandex Mail.ru

Tobias Jesso Jr - The Wait - таба, видео

Печатать
Просмотров: 46
Авторы: Tobias Jesso Jr.

-------------------------------------------------------------------------------
                             The Wait - Tobias Jesso jr.
-------------------------------------------------------------------------------
Tabbed by: Kerskjee
E-mail: karsten_h_94@hotmail.com

Tuning: Standard
Capo: 7th Fret

The whole song is based around a D chord.

It's quite a simple little tune, once you get in to it

Intro

e|--------0h2---------2---------2---------0h2---------2---------2------------|
B|--------------3-----------3-------------------3-----------3----------------|
G|--------2-------2-------2-------2-------2-------2-------2--------2---------|
D|----0-------0-------0-------0-------0-------0-------0-------0--------------|
A|---------------------------------------------------------------------------|
E|---------------------------------------------------------------------------|

e|--------0h2---------2---------2---------2---------------------2------------|
B|--------------3-----------3-------------------0-----3-----3----------------|
G|--------2-------2-------2-------2-------2-------2-------2--------2---------|
D|----0-------0-------0-------0-------0-------0-------0-------0--------------|
A|---------------------------------------------------------------------------|
E|---------------------------------------------------------------------------|

In-between/Filler

e|--------------2---------------2-----------|
B|----------3---------------3---------------|
G|--------2-------2-------2-------2---------|
D|----0-------0-------0-------0-------------|
A|------------------------------------------|
E|------------------------------------------|

Verse
      Maybe you wanted more, But if I change
e|--------0h2---------2---------2---------0h2---------2---------2------------|
B|--------------3-----------3-------------------3-----------3----------------|
G|--------2-------2-------2-------2-------2-------2-------2--------2---------|
D|----0-------0-------0-------0-------0-------0-------0-------0--------------|
A|---------------------------------------------------------------------------|
E|---------------------------------------------------------------------------|

      Could I ask you on a date?
e|--------0h2---------2---------2---------------0---------------0------------|
B|--------------3-----------3---------------3-------3-------3-------3--------|
G|--------2-------2-------2-------2-------0-------0-------0-------0----------|
D|----0-------0-------0-------0-------2-------2-------2-------2--------------|
A|---------------------------------------------------------------------------|
E|---------------------------------------------------------------------------|


     We've never kissed before, So we might be strange
e|--------0h2---------2---------2---------0h2---------2---------2------------|
B|--------------3-----------3-------------------3-----------3----------------|
G|--------2-------2-------2-------2-------2-------2-------2--------2---------|
D|----0-------0-------0-------0-------0-------0-------0-------0--------------|
A|---------------------------------------------------------------------------|
E|---------------------------------------------------------------------------|

      And I know it's getting late
e|--------0h2---------2---------2---------------0---------------0------------|
B|--------------3-----------3---------------3-------3-------3-------3--------|
G|--------2-------2-------2-------2-------0-------0-------0-------0----------|
D|----0-------0-------0-------0-------2-------2-------2-------2--------------|
A|---------------------------------------------------------------------------|
E|---------------------------------------------------------------------------|

Pre-refrain

e|--------------0------------------|
B|----------3-------3-------3------|
G|--------0-------0-------0--------|
D|----2-------2-------2------------|
A|----------------------------2---5|
E|---------------------------------|
(You could play 0 on the D-string instead of 5 on the A-string, since they're the same note.
But i believe he plays it on the A-string, in more of a Bass-guitar style.)

e|-------------0---------------0---------------0---------------0---|
B|-------0h3-------------3---------------0h3-------------3---------|
G|-------0-------0-------0-------0-------0-------0-------0---------|
D|---2-------2-------2-------2-------2-------2-------2-------2-----|
A|-----------------------------------------------------------------|
E|-----------------------------------------------------------------|
You can really do whatever you want her... but something like this works.

Outro

e|------------------------------------------------------------------------------|
B|------------------------0---------------2---------------3---------------2---h3|
G|--------------------0-------0-------3-------3-------4-------4-------2---------|
D|------------------2-------2-------4-------4-------5-------5-------2-------2---|
A|----4h5---4---2-------2-------4-------4-------5-------5-------0-------0-------|
E|------------------------------------------------------------------------------|

e|---------------------------------------------------------------------------|
B|--------------3---------------2---------------0---------------0------------|
G|----------4-------4-------3-------3-------0-------0-------0-------0--------|
D|--------5-------5-------4-------4-------0-------0-------0-------0----------|
A|----5-------5-------4-------4-------2-------2-------2-------2--------------|
E|---------------------------------------------------------------------------|

e|---------------------------------------------------------------------------|
B|--------------2---------------2---------------2-----3p2-------2------------|
G|----------2-------2-------2-------2-------2-------2-------2-------2--------|
D|--------2-------2-------2-------2-------2-------2-------2-------2----------|
A|----0-------0-------0-------0-------0-------0-------0-------0--------------|
E|---------------------------------------------------------------------------|


This is my first tab, hopefully everything is ok. I've only heard it off of the record,
so if anything is wrong, please let me know.



************************************

| /   slide up
| \   slide down
| h   hammer-on
| p   pull-off
| ~   vibrato
| +   harmonic
| x   Mute note
| b   Bend
| pb  Pre-bend
| br  Bend release
| pbr Pre-bend release
| brb Bend release bend

************************************
Добавлено: 30.11.2015
Другие материалы по этой песне:
  • Аккорды и текст

Страница создана 30.11.2015
http://primanota.ru/tobias-jesso-jr/wait-chords.htm
Привет, Гость.
Предлагаем пройти революционный курс по гитаре.
Подарок от PrimaNota.Ru, забирай!