PrimaNota.ru - самый крупный в мире бесплатный архив песенных текстов, аккордов, табулатур и нот


Toasters - Talk Is Cheap - бас-таба, видео

Регистрация Запомнить меня
Войти через:  Facebook Google Twitter Vk Yandex Mail.ru

Toasters - Talk Is Cheap - бас-таба, видео

Печатать
Просмотров: 103
Tuning: Standard
(Played with pick)

here's all you need to play this amazing song by this amazing kickass band!
i looked for this tab everywhere, as i couldn't find it, i tabbed it, it's my first tab
so be cool and have fun with it =D

Intro:
G|--------------------------|
D|-------------10-----8-----| (x2)
A|-10----8------------------|
E|--------------------------|

Riff:
G|-------------------------------------------------------------------------|
D|-------------------------------10-10----10-10----12-10----10-12-10----10-| (x4)
A|-10-10----10-10----8-8---8-8---------10-------10-------13----------13----|
E|-------10-------10-----8-----8-------------------------------------------|

Verse: (* = x8) (: = let ring)
G|-------*-*--------*-*-------12:-|
D|--*-*-10-8--*-*--10-8----12-----| (x2)
A|-10-8------10-8-------10--------|
E|--------------------------------|

Riff 2: (\ = slide down)
G|-----------------------------------------------------------------12----12-------------------------|
D|----------------12----12\----------------10---10\-10-10-10-10-10----10----12-10----10-12-10----10-| (x2)
A|-10-10-10-10-10----10------8--8--8--8--8----8-----------------------------------13----------13----|
E|--------------------------------------------------------------------------------------------------|

Verse
Riff 2 (x2)

Bridge: (/ = slide up) (% = pause)
G|-------------------8---8-7%-7%-|
D|-----*-*---*-*-*---------------|
A|-*-*-3-1-/10-8-7-6---6---------|
E|-3-1---------------------------|

Riff 1 (x2)
Riff 2 (x2)

Riff 3:
G|--------------------------------------------------------------12----12:-|
D|-------------------------------10-10----10-10----8-8----8-8------10-----|
A|-10-10----10-10----8-8---8-8---------10-------10------8-----8-----------|
E|-------10-------10-----8-----8------------------------------------------|

Riff 4                                                                 ·············ending 1············
G|-----------------------|----12----12----12----12---10---10---10---10|---9---9---9---9---8---8---7---7-|
D|--*-*-*----------------|--------------------------------------------|---------------------------------|
A|-10-8-7-6-6-6-6-5-5-5-5|-10----10----10----10----8----8----8----8---|-7---7---7---7---6---6---5---5---|
E|-----------------------|--------------------------------------------|---------------------------------|
                         \__________________(x2)______________________/

 ············ending 2················
|----------------12----12------------|-|
|-10-10-10-10-10----10----12-10-8-10-|-|
|------------------------------------|-|
|------------------------------------|-|

Verse
Riff 2 (x3)

Riff 5:
G|-----------------------------------------------------------------12----12------------|
D|----------------12----12\----------------10---10\-10-10-10-10-10----10----12-10-8-10-|
A|-10-10-10-10-10----10------8--8--8--8--8----8----------------------------------------|
E|-------------------------------------------------------------------------------------|

Outro:
G|--------------------------------------------------------------------------------------|
D|-----------------------------------------------------------------------------------5:-|
A|-10-10-10-10-8-8-8-8-7-7-7-7-6-6-6-6-10-10-10-10-8-8-8-8-7-7-7-7-6%-6%-6%-5%-5%-5%----|
E|--------------------------------------------------------------------------------------|

tabbed by: lucho_skank! (lucho_green_day@hotmail.com)

*Skank is fun!
Добавлено: 27.04.2012
Другие материалы по этой песне:
  • Аккорды и текст

Страница создана 27.04.2012
http://primanota.ru/toasters/talk-is-cheap-chords.htm
Привет, Гость.
Предлагаем пройти революционный курс по гитаре.
Подарок от PrimaNota.Ru, забирай!