PrimaNota.ru - самый крупный в мире бесплатный архив песенных текстов, аккордов, табулатур и нот


Toasters - Dont Let The Bastards Grind You Down - бас-таба, видео

Регистрация Запомнить меня
Войти через:  Facebook Google Twitter Vk Yandex Mail.ru

Toasters - Dont Let The Bastards Grind You Down - бас-таба, видео

Печатать
Просмотров: 93
Уроки эстрадного вокала в Санкт-Петербурге
The Toasters - Don't Let The Bastards Grind You Down
Originally Tabbed by Alex (scratchundsniff@hotmail.com)
A little difficult, listen to the song to get the rhythm, then it becomes much easier
G----------4-------4-----------x8|
D---4-7-55-------5---77-5--------|
A-5----------7-7----------7------|
E--------------------------------|

G------------------------------x2|
D-----555-----7-77-----555-------|
A--55-----777-------55-----777---|
E-------------------------------5|

G--------------------------------|
D--------------------------------|
A--55----------2222--------------|
E-----55-33-2--------5-----------|

G------------------------------x2|
D-----555-----7-77-----555-------|
A--55-----777-------55-----777---|
E-------------------------------5|

G----------4-------4-----------x4|
D---4-7-55-------5---77-5--------|
A-5----------7-7----------7------|
E--------------------------------|

G------------------------------x3|
D-------44-7-4-55-4--------------|
A--5-55-------------7------------|
E---------------------5----------|

G----------4-------4-----------x4|
D---4-7-55-------5---77-5--------|
A-5----------7-7----------7------|
E--------------------------------|

G------------------------------x2|
D-----555-----7-77-----555-------|
A--55-----777-------55-----777---|
E------------------------------5-|

G------------------------------x2|
D---555-----7-77-----555-----5-7-|
A55-----777-------55-----777-----|
E--------------------------------|

G----------4-------4----------x12|
D---4-7-55-------5---77-5--------|
A-5----------7-7----------7------|
E--------------------------------|

G--------------------------------|
D--------------------------------|
A--55----------2222-----5--------|
E-----55-33-2--------5-----------|
Добавлено: 17.12.2015
Другие материалы по этой песне:
  • Аккорды и текст

Страница создана 17.12.2015
http://primanota.ru/toasters/dont-let-bastards-grind-you-down-chords.htm
Привет, Гость.
Предлагаем пройти революционный курс по гитаре.
Подарок от PrimaNota.Ru, забирай!